Song name
# A B C D E F G H I J K L M N O P Q R S T U V W X Y Z

Millencolin - Happiness For Dogs tab

-------------------------------------------------------------------------------
			     HAPPINESS FOR DOGS - Millencolin
-------------------------------------------------------------------------------
Tabbed by: skaithe
Email: hoseduck@hotmail.com

Tuning: Standard (EADGBe)

Note: Millencolin has 2 guitarists, but we think this is the best way to play the
whole song if you only have one guitar. We've combined the rhythm and lead parts
so it still sounds good even if you only have a single guitarist in your band. 

                     
Intro pt 1
e||-----------------------------------------------------------------------------------||
B||-----------------------------------------------------------------------------------||
G||-----------------------------------------------------------------------------------||
D||--7--7--7-7-7-10-/-12-\-9--9-9-9--10-10-101010--9-9-9--5--5-5-5--------------------||
A||--x--x--x-x-x--x-/--x-\-x--x-x-x--x--x--x-x-x---x-x-x--x--x-x-x--------------------||
E||--5--5--5-5-5--8-/-10-\-7--7-7-7--8--8--8-8-8---7-7-7--3--3-3-3--------------------||

e||-----------------------------------------------------------------------------------||
B||-----------------------------------------------------------------------------------||
G||-----------------------------------------------------------------------------------||
D||--7--7--7-7-7-10-/-12-\-9--9-9-9--10-10-101010--9-9-9--5-\-------------------------||
A||--x--x--x-x-x--x-/--x-\-x--x-x-x--x--x--x-x-x---x-x-x--x-\-------------------------||
E||--5--5--5-5-5--8-/-10-\-7--7-7-7--8--8--8-8-8---7-7-7--3-\-------------------------||

Intro pt 2
e||-----------------------------------------------------------------------------------||
B||-----------------------------------------------------------------------------------||
G||-----------------------------------------------------------------------------------||
D||--7--7--7-7-7--9-9-9-10-101010--10-10-101010--9-9-9--5-5-5-------------------------||  x4
A||--7--7--7-7-7--9-9-9-10-101010--10-10-101010--9-9-9--5-5-5-------------------------||
E||--5--5--5-5-5--7-7-7--8--8-8-8---8--8--8-8-8--7-7-7--3-3-3-------------------------||

Verse 1
e||-----------------------------------------------------------------------------------||
B||-----------------------------------------------------------------------------------||
G||o--------------------------------------------------------------------------------o-||
D||o-7--7-7--7-7-7--7-7-7--7-7-7-\-3--3-3--3-3-3--3-3-3--3-3-3-/--------------------o-||  x3
A||--7--7-7--7-7-7--7-7-7--7-7-7-\-3--3-3--3-3-3--3-3-3--3-3-3-/----------------------||
E||--5--5-5--5-5-5--5-5-5--5-5-5-\-1--1-1--1-1-1--1-1-1--1-1-1-/----------------------||

e||-----------------------------------------------------------------------------------||
B||-----------------------------------------------------------------------------------||
G||-----------------------------------------------------------------------------------||
D||--7--7-7--7-7-7--7-7-7--7-7-7-\-3--3--3-3-3--5--5-5--5-5-5-5-----------------------||  
A||--7--7-7--7-7-7--7-7-7--7-7-7-\-3--3--3-3-3--5--5-5--5-5-5-5-----------------------||
E||--5--5-5--5-5-5--5-5-5--5-5-5-\-1--1--1-1-1--3--3-3--3-3-3-3-----------------------||

Chorus
e||-----------------------------------------------------------------------------------||
B||-----------------------------------------------------------------------------------||
G||--5-5-5-5-5-5-5-5-5-5-5-5----------------------------------------------------------||
D||--5-5-5-5-5-5-5-5-5-5-5-5--5-5-5-5-5-5-5-5-5-5-5-5--7-7-7-7-7-7-7-7-7-7-7-7--------||
A||--3-3-3-3-3-3-3-3-3-3-3-3--5-5-5-5-5-5-5-5-5-5-5-5--7-7-7-7-7-7-7-7-7-7-7-7--------||
E||---------------------------3-3-3-3-3-3-3-3-3-3-3-3--5-5-5-5-5-5-5-5-5-5-5-5--------||

e||-----------------------------------------------------------------------------------||
B||-----------------------------------------------------------------------------------||
G||---------------------------5-5-5-5-5-5-5-5-5-5-5-5---------------------------------||
D||--3-3-3-3-3-3-3-3-3-3-3-3--5-5-5-5-5-5-5-5-5-5-5-5--5-5-5-5-5-5-5-5-5-5-5-5--------||
A||--3-3-3-3-3-3-3-3-3-3-3-3--3-3-3-3-3-3-3-3-3-3-3-3--5-5-5-5-5-5-5-5-5-5-5-5--------||
E||--1-1-1-1-1-1-1-1-1-1-1-1---------------------------3-3-3-3-3-3-3-3-3-3-3-3--------||

e||-----------------------------------------------------------------------------------||
B||-----------------------------------------------------------------------------------||
G||-----------------------------------------------------------------------------------||
D||--7-7-7-7-7--5-5-5-5-5-5-5--3-3-3-3-3--5-5-5-5-5-5-5-------------------------------||
A||--7-7-7-7-7--5-5-5-5-5-5-5--3-3-3-3-3--5-5-5-5-5-5-5-------------------------------||
E||--5-5-5-5-5--3-3-3-3-3-3-3--1-1-1-1-1--3-3-3-3-3-3-3-------------------------------||

Intro pt 1
e||-----------------------------------------------------------------------------------||
B||-----------------------------------------------------------------------------------||
G||-----------------------------------------------------------------------------------||
D||--7--7--7-7-7-10-/-12-\-9--9-9-9--10-10-101010--9-9-9--5--5-5-5--------------------||
A||--x--x--x-x-x--x-/--x-\-x--x-x-x--x--x--x-x-x---x-x-x--x--x-x-x--------------------||
E||--5--5--5-5-5--8-/-10-\-7--7-7-7--8--8--8-8-8---7-7-7--3--3-3-3--------------------||

e||-----------------------------------------------------------------------------------||
B||-----------------------------------------------------------------------------------||
G||-----------------------------------------------------------------------------------||
D||--7--7--7-7-7-10-/-12-\-9--9-9-9--10-10-101010--9-9-9--5-\-------------------------||
A||--x--x--x-x-x--x-/--x-\-x--x-x-x--x--x--x-x-x---x-x-x--x-\-------------------------||
E||--5--5--5-5-5--8-/-10-\-7--7-7-7--8--8--8-8-8---7-7-7--3-\-------------------------||

Verse 2
e||-----------------------------------------------------------------------------------||
B||-----------------------------------------------------------------------------------||
G||-----------------------------------------------------------------------------------||
D||--7~~---------------------------3~~------------------------------------------------||  x2
A||--7~~---------------------------3~~------------------------------------------------||
E||--5~~---------------------------1~~------------------------------------------------||

e||-----------------------------------------------------------------------------------||
B||-----------------------------------------------------------------------------------||
G||-----------------------------------------------------------------------------------||
D||--7--7-7--7-7-7--7-7-7--7-7-7-\-3--3-3--3-3-3--3-3-3--3-3-3-/----------------------||  
A||--7--7-7--7-7-7--7-7-7--7-7-7-\-3--3-3--3-3-3--3-3-3--3-3-3-/----------------------||
E||--5--5-5--5-5-5--5-5-5--5-5-5-\-1--1-1--1-1-1--1-1-1--1-1-1-/----------------------||

e||-----------------------------------------------------------------------------------||
B||-----------------------------------------------------------------------------------||
G||-----------------------------------------------------------------------------------||
D||--7--7-7--7-7-7--7-7-7--7-7-7-\-3--3--3-3-3--5--5-5--5-5-5-5-----------------------||  
A||--7--7-7--7-7-7--7-7-7--7-7-7-\-3--3--3-3-3--5--5-5--5-5-5-5-----------------------||
E||--5--5-5--5-5-5--5-5-5--5-5-5-\-1--1--1-1-1--3--3-3--3-3-3-3-----------------------||

Chorus
e||-----------------------------------------------------------------------------------||
B||-----------------------------------------------------------------------------------||
G||--5-5-5-5-5-5-5-5-5-5-5-5----------------------------------------------------------||
D||--5-5-5-5-5-5-5-5-5-5-5-5--5-5-5-5-5-5-5-5-5-5-5-5--7-7-7-7-7-7-7-7-7-7-7-7--------||
A||--3-3-3-3-3-3-3-3-3-3-3-3--5-5-5-5-5-5-5-5-5-5-5-5--7-7-7-7-7-7-7-7-7-7-7-7--------||
E||---------------------------3-3-3-3-3-3-3-3-3-3-3-3--5-5-5-5-5-5-5-5-5-5-5-5--------||

e||-----------------------------------------------------------------------------------||
B||-----------------------------------------------------------------------------------||
G||---------------------------5-5-5-5-5-5-5-5-5-5-5-5---------------------------------||
D||--3-3-3-3-3-3-3-3-3-3-3-3--5-5-5-5-5-5-5-5-5-5-5-5--5-5-5-5-5-5-5-5-5-5-5-5--------||
A||--3-3-3-3-3-3-3-3-3-3-3-3--3-3-3-3-3-3-3-3-3-3-3-3--5-5-5-5-5-5-5-5-5-5-5-5--------||
E||--1-1-1-1-1-1-1-1-1-1-1-1---------------------------3-3-3-3-3-3-3-3-3-3-3-3--------||

e||-----------------------------------------------------------------------------------||
B||-----------------------------------------------------------------------------------||
G||o--------------------------------------------------------------------------------o-||
D||o-7-7-7-7-7--5-5-5-5-5-5-5--3-3-3-3-3--5-5-5-5-5-5-5-----------------------------o-||  x2  
A||--7-7-7-7-7--5-5-5-5-5-5-5--3-3-3-3-3--5-5-5-5-5-5-5-------------------------------||
E||--5-5-5-5-5--3-3-3-3-3-3-3--1-1-1-1-1--3-3-3-3-3-3-3-------------------------------||

Verse 3
e||-----------------------------------------------------------------------------------||
B||-----------------------------------------------------------------------------------||
G||-----------------------------------------------------------------------------------||
D||--7--7-7--7-7-7--7-7-7--7-7-7-\-3--3-3--3-3-3--3-3-3--3-3-3-/----------------------||  
A||--7--7-7--7-7-7--7-7-7--7-7-7-\-3--3-3--3-3-3--3-3-3--3-3-3-/----------------------||
E||--5--5-5--5-5-5--5-5-5--5-5-5-\-1--1-1--1-1-1--1-1-1--1-1-1-/----------------------||

e||-----------------------------------------------------------------------------------||
B||-----------------------------------------------------------------------------------||
G||-----------------------------------------------------------------------------------||
D||--7--7-7--7-7-7--7-7-7--7-7-7-\-3--3--3-3-3---5--5---------------------------------||  
A||--7--7-7--7-7-7--7-7-7--7-7-7-\-3--3--3-3-3---5--5---------------------------------||
E||--5--5-5--5-5-5--5-5-5--5-5-5-\-1--1--1-1-1---3--3---------------------------------||

Bridge
e||-----------------------------------------------------------------------------------||
B||-----------------------------------------------------------------------------------||
G||-----------------------------------------------------------------------------------||
D||--3-3-3-3-3--5-5-5-5-5-5-5--7-7-7-7-7--2-2-2-2-2-2-2-------------------------------||
A||--3-3-3-3-3--5-5-5-5-5-5-5--7-7-7-7-7--2-2-2-2-2-2-2-------------------------------||
E||--1-1-1-1-1--3-3-3-3-3-3-3--5-5-5-5-5--0-0-0-0-0-0-0-------------------------------||

e||-----------------------------------------------------------------------------------||
B||-----------------------------------------------------------------------------------||
G||------------------------------------------5--4-5-4-5-4-----------------------------||
D||--3-3-3-3-3--5-5-5-5-5-5-5---------------------------------------------------------||
A||--3-3-3-3-3--5-5-5-5-5-5-5--3--3-2-3-2-3-------------------------------------------||
E||--1-1-1-1-1--3-3-3-3-3-3-3---------------------------------------------------------||

e||-----------------------------------------------------------------------------------||
B||-----------------------------------------------------------------------------------||
G||-----------------------------------------------------------------------------------||
D||--3-3-3-3-3--5-5-5-5-5-5-5--7-7-7-7-7--2-2-2-2-2-2-2-------------------------------||
A||--3-3-3-3-3--5-5-5-5-5-5-5--7-7-7-7-7--2-2-2-2-2-2-2-------------------------------||
E||--1-1-1-1-1--3-3-3-3-3-3-3--5-5-5-5-5--0-0-0-0-0-0-0-------------------------------||

e||-----------------------------------------------------------------------------------||
B||-----------------------------------------------------------------------------------||
G||-----------------------------------------------------------------------------------||
D||--3-3-3-3-3--5~~---<<<<<<<<<<<<<<<<<<<<<<<<<<<<<<<<<<<<----------------------------||
A||--3-3-3-3-3--5~~---<<<<<<<<<<<<<<<<<<<<<<<<<<<<<<<<<<<<----------------------------||
E||--1-1-1-1-1--3~~---<<<<<<<<<<<<<<<<<<<<<<<<<<<<<<<<<<<<----------------------------||
	  	      pick scrape
Chorus
e||-----------------------------------------------------------------------------------||
B||-----------------------------------------------------------------------------------||
G||o-5-5-5-5-5-5-5-5-5-5-5-5----------------------------------------------------------||
D||o-5-5-5-5-5-5-5-5-5-5-5-5--5-5-5-5-5-5-5-5-5-5-5-5--7-7-7-7-7-7-7-7-7-7-7-7--------||
A||--3-3-3-3-3-3-3-3-3-3-3-3--5-5-5-5-5-5-5-5-5-5-5-5--7-7-7-7-7-7-7-7-7-7-7-7--------||
E||---------------------------3-3-3-3-3-3-3-3-3-3-3-3--5-5-5-5-5-5-5-5-5-5-5-5--------||

e||-----------------------------------------------------------------------------------||
B||-----------------------------------------------------------------------------------||
G||---------------------------5-5-5-5-5-5-5-5-5-5-5-5---------------------------------||
D||--3-3-3-3-3-3-3-3-3-3-3-3--5-5-5-5-5-5-5-5-5-5-5-5--5-5-5-5-5-5-5-5-5-5-5-5--------||
A||--3-3-3-3-3-3-3-3-3-3-3-3--3-3-3-3-3-3-3-3-3-3-3-3--5-5-5-5-5-5-5-5-5-5-5-5--------||
E||--1-1-1-1-1-1-1-1-1-1-1-1---------------------------3-3-3-3-3-3-3-3-3-3-3-3--------||

e||-----------------------------------------------------------------------------------||
B||-----------------------------------------------------------------------------------||
G||----------------------------------------------------------------------------------o||
D||--7-7-7-7-7--5-5-5-5-5-5-5--3-3-3-3-3--5-5-5-5-5-5-5------------------------------o||  x2
A||--7-7-7-7-7--5-5-5-5-5-5-5--3-3-3-3-3--5-5-5-5-5-5-5-------------------------------||
E||--5-5-5-5-5--3-3-3-3-3-3-3--1-1-1-1-1--3-3-3-3-3-3-3-------------------------------||

End On
e||-------||
B||-------||
G||--5~~--||
D||--5~~--||
A||--3~~--||
E||-------||

| /  slide up
| \  slide down
| h  hammer-on
| p  pull-off
| ~  vibrato
| +  harmonic
| x  Mute note
===============================================================================
Tap to rate this tab
 
# A B C D E F G H I J K L M N O P Q R S T U V W X Y Z