Song name
# A B C D E F G H I J K L M N O P Q R S T U V W X Y Z

Millencolin - Kemp tab

Chorus & Intro:
E----------------------------------------
B----------------------------------------
G----------------5-5-5--2-2-2------------
D-5-5-5---2-2-2--5-5-5--0-0-0------------
A-5-5-5---2-2-2--2-2-2--0-0-0------------
E-2-2-2---0-0-0--------------------------

Verse is the same as the Chorus & Intro riff but its palm muted instead.

Bridge:
E--------------------------------------
B--------------------------------------
G-7-------9----------------------------
D-7-------9----------------------------
A-5-------7----------------------------
E--------------------------------------
  x16     x16

Scale for the Solo (F#)-

E------------------------------------14-17--
B-----------------------------14-16---------
G----------------------14-16----------------
D---------------14-16-----------------------
A--------14-16------------------------------
E-14-17-------------------------------------
Tap to rate this tab
 
# A B C D E F G H I J K L M N O P Q R S T U V W X Y Z