Song name
# A B C D E F G H I J K L M N O P Q R S T U V W X Y Z

Millencolin - Fox tab

-|-----------------------------------------------------------------------------
-|-----------------------------------------------------------------------------
-|-7-7---------7-7-------------------------------------------------------------
-|-7-7--5-5--7-7--5-5--9-9--7-7--5-5-5-5---------------------------------------
-|-5-5--5-5--5-5--5-5--9-9--7-7--5-5-5-5---------------------------------------
-|-------3-3---------3-3--7-7--5-5--3-3-3-3------------------------------------

-|-----------------------------------------------------------------------------
-|--------------------------------------------------------------7--------------
-|-7-7---------7-7------------------------7--------------------7-7-------------
-|-7-7--5-5--7-7--5-5--9-9--7-7--5-5-5-5--7--------------------7-5-------------
-|-5-5--5-5--5-5--5-5--9-9--7-7--5-5-5-5--5--------------------5---------------
-|-------3-3---------3-3--7-7--5-5--3-3-3-3------------------------------------

-|-----------------------------------------------------------------------------
-|-----------------------------------------------------------------------------
-|-7-7-------7-7---------------------------------------------------------------
-|-7-7--5-5--7-7--5-5--9-9--7-7--5-5-5-5---------------------------------------
-|-5-5--5-5--5-5--5-5--9-9--7-7--5-5-5-5---------------------------------------
-|------3-3-------3-3--7-7--5-5--3-3-3-3---------------------------------------

-|-----------------------------------------------------------------------------
-|---------------------------------------------------------------7-------------
-|-7-7-------7-7--------------------------7--------------------7-7-------------
-|-7-7--5-5--7-7--5-5--9-9--7-7--5-5-5-5--7--------------------7-5-------------
-|-5-5--5-5--5-5--5-5--9-9--7-7--5-5-5-5--5--------------------5---------------
-|------3-3-------3-3--7-7--5-5--3-3-3-3---------------------------------------

-|-----------------------------------------------------------------------------
-|-----------------------------------------------------------------------------
-|-7-7-------7-7---------------------------------------------------------------
-|-7-7--5-5--7-7--5-5--9-9--7-7--5-5-5-5---------------------------------------
-|-5-5--5-5--5-5--5-5--9-9--7-7--5-5-5-5---------------------------------------
-|------3-3-------3-3--7-7--5-5--3-3-3-3---------------------------------------


-|-----------------------------------------------------------------------------
-|-----------------------------------------------------------------------------
-|-77-----77--------------777777777--------------------------------------------
-|-77-55-77-55-99-77-5555-777777777--------------------------------------------
-|-55-55-55-55-99-77-5555-555555555--------------------------------------------
-|----33----33-77-55-3333------------------------------------------------------

-|-----------------------------------------------------------------------------
-|-----------------------------------------------------------------------------
-|-----------------------------------------------------------------------------
-|-9-7-5--9-7-5--9-7-5--9-7-5--------------------------------------------------
-|-9-7-5--9-7-5--9-7-5--9-7-5--------------------------------------------------
-|-7-5-3--7-5-3--7-5-3--7-5-3--------------------------------------------------

-|-----------------------------------------------------------------------------
-|-----------------------------------------------------------------------------
-|--11--11--11--11--11--11--11--11--11--9--7-----------------------------------
-|-----------------------------------------------------------------------------
-|-----------------------------------------------------------------------------
-|-----------------------------------------------------------------------------

-|-----------------------------------------------------------------------------
-|-----------------------------------------------------------------------------
-|--11--11--11--11--11--11--11--11--11--9--7-----------------------------------
-|-----------------------------------------------------------------------------
-|-----------------------------------------------------------------------------
-|-----------------------------------------------------------------------------

-|-----------------------------------------------------------------------------
-|-----------------------------------------------------------------------------
-|-7-7-------7-7---------------------------------------------------------------
-|-7-7--5-5--7-7--5-5--9-9--7-7--5-5-5-5---------------------------------------
-|-5-5--5-5--5-5--5-5--9-9--7-7--5-5-5-5---------------------------------------
-|------3-3-------3-3--7-7--5-5--3-3-3-3---------------------------------------

-|-----------------------------------------------------------------------------
-|-----------------------------------------------------------------------------
-|-7-7-------7-7---------------------------------------------------------------
-|-7-7--5-5--7-7--5-5--9-9--7-7--5-5-5-5--9-9--7-7--5-5-5-5--9-9--7-7--5-5-5-5-
-|-5-5--5-5--5-5--5-5--9-9--7-7--5-5-5-5--9-9--7-7--5-5-5-5--9-9--7-7--5-5-5-5-
-|-------3-3------3-3--7-7--5-5--3-3-3-3--7-7--5-5--3-3-3-3--7-7--5-5--3-3-3-3-
Tap to rate this tab
 
# A B C D E F G H I J K L M N O P Q R S T U V W X Y Z