Song name
# A B C D E F G H I J K L M N O P Q R S T U V W X Y Z

Millencolin - Monkey Boogie tab

Intro/opening to solo:

|------------------|--------|-------|
|------------------|--------|-9-7-7-|
|-/8p7h8p7h8p7h8p7-|--------|-------|
|------------------|-11-9-9-|-------|
|------------------|--------|-------|
|------------------|--------|-------|

Verses(ska rhythm):

    B      E                 C#
|-4X444---------4X444----|-6X666-6X666-|
|-4X444--5X555--4X444--5-|-6x666-6x666-|
|-4X444--4X444--4X444--4-|-6x666-6x666-|
|-4X444---------4X444----|-6x666-6x666-|
|------------------------|-------------|
|------------------------|-------------|

Choruses:

    B           E     F#
|-4X444X4X444-0X000-2X222-|
|-4X444X4X444-0X000-2X222-|
|-4X444X4X444-1X111-3X333-|
|-4X444X4X444-2X222-4X444-|
|-------------------------|

Bridge:

|-----------------------------------------------------|
|---------------------------------------------------7-|
|-----------------3h4p3h4p3h4p3h4p-5h6p5h6p5h6p5h6p---|
|-3h4p3h4p3h4p3h4p------------------------------------|
|-----------------------------------------------------|
|-----------------------------------------------------|

Solo:

|---------------------------------------------------------------------|
|-/121212-9-12-9-12-9-12-9-9---------------------------------9-77-9---|
|----------------------------11-8-8-11---6h8-6h8-6h8-6h8-8-6--------8-|
|--------------------------------------9------------------------------|
|---------------------------------------------------------------------|
|---------------------------------------------------------------------|

|-------------------------------------------------------------55555-|
|-----------------------------------------6h7-6h7-6h7-6h7-6h7-------|
|-5h6-5h6-5h6-5h6-5h6-7h8-7h8-7h8-7h8-7h8---------------------------|
|-------------------------------------------------------------------|
|-------------------------------------------------------------------|
|-------------------------------------------------------------------|
Tap to rate this tab
# A B C D E F G H I J K L M N O P Q R S T U V W X Y Z