Song name
# A B C D E F G H I J K L M N O P Q R S T U V W X Y Z

Millencolin - Penguins & Polarbears tab

Band: Millencollin
Song: Penguins and Polarbears

Intro
Guitar 1                             Last time
e|-2-2-2-2-2-2-2-0-3-3-5-3-3-3-5-3--|-2-2-2-2-3-5-3-3-3-3-3-3-|
B|-0-0-0-0-0-0-0---3-3-3-3-3-3-3-3--|-0-0-0-0-3-3-3-3-3-3-3-3-|
G|----------------------------------|-------------------------|
D|----------------------------------|-------------------------|
A|----------------------------------|-------------------------|
E|----------------------------------|-------------------------|
Guitar 2                             Last time
E|----------------------------------|-------------------------|
B|----------------------------------|-------------------------|
G|----------------------------------|-------------------------|
D|-4-4-4-4--------------------------|-4-4-4-4-----------------|
A|-2-2-2-2-4-4-4-4-5-5-5-5-5-5-5----|-2-2-2-2-4-5-7-7-7-7-7-7-|
E|---------2-2-2-2-3-3-3-3-3-3-3----|---------2-3-5-5-5-5-5-5-|

Verse:
e|--------------------------------------|
B|--------------------------------------|
G|--------------------------------------|
D|-4-4-4-4------------------------------|
A|-2-2-2-2-4-4-4-4-5-5-5-5-7-7-7-7------|
E|---------2-2-2-2-3-3-3-3-5-5-5-5------|

Chorus:
e|-------------------------------------------|
B|-------------------------------------------|
G|-------------------------------------------|
D|-7-7-7-7-7-----------4-4-4-4-4-------------|
A|-5-5-5-5-5-7-7-7-7-7-2-2-2-2-2-5-5-5-5-5---|
E|-----------5-5-5-5-5-----------3-3-3-3-3---|

Pre-Middle thing:
Guitar 1                       Guitar 2
e|-2---|-------------|        e|------------|
B|-0---|------0------|        B|------------|
G|-0---|-------------|        G|------------|
D|-----|-------------|        D|--7---------|
A|-----|-------------|        A|--5---------|
E|-----|-------------|        E|------------|

Middle part:
e|----------------------------------------------------------|
B|----------------------------------------------------------|
G1----------------------------------------------------------|
D|-9-9-9-9-9-9-9-9-9-9-9-9-12-12-12-12-12-12-12-12-12-12-12-|
A|-7-7-7-7-7-7-7-7-7-7-7-7-10-10-10-10-10-10-10-10-10-10-10-|
E|----------------------------------------------------------|

e|-----------------------------------------------|
B|-----------------------------------------------|
G|-----------------------------------------------|
D|-14-14-14-14-14-14-14-14-14-14-14-14-14-14-14--|
A|-12-12-12-12-12-12-12-12-12-12-12-12-12-12-12--|
E|-----------------------------------------------|

Intro
Verse
Intro
Verse
Chorus
Intro
Verse
Chorus
Pre-Middle thing
Middle part
Chorus
Intro
Tap to rate this tab
# A B C D E F G H I J K L M N O P Q R S T U V W X Y Z