Song name
# A B C D E F G H I J K L M N O P Q R S T U V W X Y Z

Millencolin - Fox tab

-----------------------------------------------------------------------------
                    FOX-MILLENCOLIN
-----------------------------------------------------------------------------
Tabbed by:COOKIE
Email:

THIS IS A REALLY EASY SONG TO PLAY BUT REALLY EFFECTIVE, ONE OF THERE BEST SONGS 

/=PICKSLIDE
B=BEND

Tuning:STANDARD

INTRO
e|------------------------------------------
B|------------------------------------------
G|------------------------------------------
D|-7-7-----7-7------------------------------
A|-5-5-5-5-5-5-5-5--9-9-7-7-5-5-5-5---------
E|-----3-3-----3-3--7-7-5-5-3-3-3-3---------

   
VERSE
e|---------------------------------------------------------------------------
B|---------------------------------------------------------------------------
G|---------------------------------------------------------------------------
D|--7------------------------------------------------------------------------
A|--5-LET RING---------------------------------------------5-5---//////------
E|---------------------------------------------------------------------------
  
CHORUS

e|------------------------------------------
B|------------------------------------------
G|------------------------------------------
D|-------------------7-7-7-7-7-7-7-7--------
A|--9-9-9-9-7-7-7-7--5-5-5-5-5-5-5-5--------
E|--7-7-7-7-5-5-5-5-------------------------

SOLO

e|------------------------------------------
B|------------------------------------------
G|--9b-9b-9b-9b-9b-9b-9b-9b-11-11-9-9-7-----
D|------------------------------------------
A|------------------------------------------
E|------------------------------------------

OUTRO

e|-------------------
B|-------------------
G|-------------------
D|-------------------
A|-9-9-7-7-5-5-5-5---
E|-7-7-5-5-3-3-3-3---

LAYOUT

INTRO X2
VERSE X2 
INTRO X2
VERSE X2
INTRO X2
CHORUS X4
SOLO X2
INTRO X2
OUTRO X2  LET LAST NOTE RING OUT
Tap to rate this tab
# A B C D E F G H I J K L M N O P Q R S T U V W X Y Z