Song name
# A B C D E F G H I J K L M N O P Q R S T U V W X Y Z

Millencolin - Bullion tab

Artist: MILLENCOLIN
Song:   Bullion
tabt by: Sebastian [sloshed] Collazo (germany)



Intro 1:
    D A G       B G A       D A G       B G A
                                  P.M..|      P.M..|
e-|-------------------------------------------------|
B-|-------------------------------------------------|
G-|-7-----------4-----------7-----------4-----------|
D-|-7-7-5-------4-5-7-------7-7-5-------4-5-7-------|
A-|-5-7-5-------2-5-7-------5-7-5-------2-5-7-------|
E-|---5-3---------3-5---------5-3-3-3-3---3-5-5-5-5-|

           
First verse 2x
   
    D     A     G     B  A     
    P.M..................|                                            
e-|-------------------------|   
B-|-------------------------|
G-|-7-----------------4--2--|
D-|-7-----7-----5-----4--2--|
A-|-5-----7-----5-----2--0--|
E-|-------5-----3-----------|

Play Open 2x
    D     A     G     B  A  
e-|-------------------------|   
B-|-------------------------|
G-|-7-----------------4--2--|
D-|-7-----7-----5-----4--2--|
A-|-5-----7-----5-----2--0--|
E-|-------5-----3-----------|

Intro 2:
    D A G       B G A       D A G       B G A
          P.M..|      P.M..|      P.M..|      P.M..|
e-|-------------------------------------------------|
B-|-------------------------------------------------|
G-|-7-----------4-----------7-----------4-----------|
D-|-7-7-5-------4-5-7-------7-7-5-------4-5-7-------|
A-|-5-7-5-------2-5-7-------5-7-5-------2-5-7-------|
E-|---5-3-3-3-3---3-5-5-5-5---5-3-3-3-3---3-5-5-5-5-| 

Second verse 2x

    D     A     G     B  A     
    P.M..................|                                            
e-|-------------------------|   
B-|-------------------------|
G-|-7-----------------4--2--|
D-|-7-----7-----5-----4--2--|
A-|-5-----7-----5-----2--0--|
E-|-------5-----3-----------|

Play Open 2x
    D     A     G     B  A  
e-|-------------------------|   
B-|-------------------------|
G-|-7-----------------4--2--|
D-|-7-----7-----5-----4--2--|
A-|-5-----7-----5-----2--0--|
E-|-------5-----3-----------|

Solo:

 / slide
                              
e-|-------------------------------------------------|
B-|-------------------------------------------------|
G-|-/7/9/12-11-12-11-9-7----/7/9/12-11----12/14-----|
D-|-------------------------------------------------|
A-|-------------------------------------------------|
E-|-------------------------------------------------|

Solo Background 2x:

          D        A       B       G         

e-|---------------------------------------|  Hit every akkord only one time!
B-|---------------------------------------|
G-|--------7---------------4--------------|
D-|--------7-------7-------4-------5------|
A-|--------5-------7-------2-------5------|
E-|----------------5---------------3------|



and now play the rest 10x

           D        A       B       G         

e-|---------------------------------------|
B-|---------------------------------------|
G-|--------7---------------4--------------|
D-|--------7-------7-------4-------5------|
A-|--------5-------7-------2-------5------|
E-|----------------5---------------3------|

after two times play this 8x: 

                           
         Harm. Harm.
e-|-----------------------------------|
B-|------------7----------------------|
G-|--------5--------------------------|
D-|-----------------------------------|
A-|-----------------------------------|
E-|-----------------------------------|

Outro:
                                             
e-|---------------------------------------|
B-|---------------------------------------|
G-|--------7-----------4------------------|
D-|--------7-7-5-------4-5-7--------------|
A-|--------5-7-5-------2-5-7--------------|
E-|----------5-3---------3-5--------------|

Finish!
greatings seb
Tap to rate this tab
 
# A B C D E F G H I J K L M N O P Q R S T U V W X Y Z