Song name
# A B C D E F G H I J K L M N O P Q R S T U V W X Y Z

Millencolin - Penguins And Polarbears tab

Tabbed By: Gibbsy87

Intro
Guitar 1
E-2-2-2-2-2-2-2-2-3-3-5-3-3-3-5-3--         -2-2-2-2-3--|
B-0-0-0-0-0-0-0-0-3-3-3-3-3-3-3-3--         -0-0-0-2-3--|
G----------------------------------         ------------|
D---------------------------------- x5 Then ------------|
A----------------------------------         ------------|
E----------------------------------         ------------|

Guitar 2 (Come In After 2nd Time Guitar 1 Plays Intro)
E------------------------------------         -------------|
B------------------------------------         -------------|
G-4-4-4-4----------------------------         -4-4-4-------|
D-4-4-4-4--4-4-4-4--5-5-5-5-5-5-5-5-- x3 Then -4-4-4--4-5--|
A-2-2-2-2--4-4-4-4--5-5-5-5-5-5-5-5--         -2-2-2--4-5--|
E----------2-2-2-2--3-3-3-3-3-3-3-3--         --------2-3--|

Verse
Both Guitars
E-----------------------------|
B-----------------------------|
G-4-4-4-----------------------|
D-4-4-4--4-4-4--5-5-5--7-7-7--|
A-2-2-2--4-4-4--5-5-5--7-7-7--|
E--------2-2-2--3-3-3--5-5-5--|
Pm. .    . .    . .    . .

Post Verse
Guitar 1
E-2-2-2-2-2-2-2-2-3-3-5-3-3-3-5-3--|
B-0-0-0-0-0-0-0-0-3-3-3-3-3-3-3-3--|
G----------------------------------|
D----------------------------------| x2
A----------------------------------|
E----------------------------------|

Guitar 2
E------------------------------------|
B------------------------------------|
G-4-4-4-4----------------------------|
D-4-4-4-4--4-4-4-4--5-5-5-5-5-5-5-5--|
A-2-2-2-2--4-4-4-4--5-5-5-5-5-5-5-5--|
E----------2-2-2-2--3-3-3-3-3-3-3-3--|

Verse
Both Guitars
E-----------------------------|
B-----------------------------|
G-4-4-4-----------------------|
D-4-4-4--4-4-4--5-5-5--7-7-7--|
A-2-2-2--4-4-4--5-5-5--7-7-7--|
E--------2-2-2--3-3-3--5-5-5--|
Pm. .    . .    . .    . .

Chorus
Guitar 1
E-10-10-10-10-10-10-10-10-10-------------------------7-7-7-7-7-7-7-7------------------|
B----------------------------10-10-10-10-10-10-10-10-----------------8-8-8-8-8-8-8-8--|
G-------------------------------------------------------------------------------------|
D-------------------------------------------------------------------------------------|
A-------------------------------------------------------------------------------------|
E-------------------------------------------------------------------------------------|

Guitar 2
E---------------------------------------------------------------------|
B---------------------------------------------------------------------|
G-7-7-7-7-7-7-7-7-------------------4-4-4-4-4-4-4-4-------------------|
D-7-7-7-7-7-7-7-7--7-7-7-7-7-7-7-7--4-4-4-4-4-4-4-4--5-5-5-5-5-5-5-5--| x2
A-5-5-5-5-5-5-5-5--7-7-7-7-7-7-7-7--2-2-2-2-2-2-2-2--5-5-5-5-5-5-5-5--|
E------------------5-5-5-5-5-5-5-5-------------------3-3-3-3-3-3-3-3--|

Post Chorus
Guitar 1
E-2-2-2-2-2-2-2-2-3-3-5-3-3-3-5-3--|
B-0-0-0-0-0-0-0-0-3-3-3-3-3-3-3-3--|
G----------------------------------|
D----------------------------------| x2
A----------------------------------|
E----------------------------------|

Guitar 2
E------------------------------------|
B------------------------------------|
G-4-4-4-4----------------------------|
D-4-4-4-4--4-4-4-4--5-5-5-5-5-5-5-5--|
A-2-2-2-2--4-4-4-4--5-5-5-5-5-5-5-5--|
E----------2-2-2-2--3-3-3-3-3-3-3-3--|

Verse
Both Guitars
E-----------------------------|
B-----------------------------|
G-4-4-4-----------------------|
D-4-4-4--4-4-4--5-5-5--7-7-7--|
A-2-2-2--4-4-4--5-5-5--7-7-7--|
E--------2-2-2--3-3-3--5-5-5--|
Pm. .    . .    . .    . .

Chorus
Guitar 1
E-10-10-10-10-10-10-10-10-10-------------------------7-7-7-7-7-7-7-7------------------|
B----------------------------10-10-10-10-10-10-10-10-----------------8-8-8-8-8-8-8-8--|
G-------------------------------------------------------------------------------------|
D-------------------------------------------------------------------------------------|
A-------------------------------------------------------------------------------------|
E-------------------------------------------------------------------------------------|

Guitar 2
E---------------------------------------------------------------------|
B---------------------------------------------------------------------|
G-7-7-7-7-7-7-7-7-------------------4-4-4-4-4-4-4-4-------------------|
D-7-7-7-7-7-7-7-7--7-7-7-7-7-7-7-7--4-4-4-4-4-4-4-4--5-5-5-5-5-5-5-5--| x4
A-5-5-5-5-5-5-5-5--7-7-7-7-7-7-7-7--2-2-2-2-2-2-2-2--5-5-5-5-5-5-5-5--|
E------------------5-5-5-5-5-5-5-5-------------------3-3-3-3-3-3-3-3--|

Bridge Part 1
E-----                                 -----|
B-----                                 -----|
G-4*--                                 -4*--|
D-4*-- Then After The 4th Part Of Bass -----|
A-2*--                                 -----|
E-----                                 -----|

Bridge Part 2
E-----------------------------------------------------------------------------------------|
B-----------------------------------------------------------------------------------------|
G-4/9-9-9-9-9-9-9-9-9-9-9-9-9-9-9-9--10--11-11-11-11-11-11-11-11-11-11-11-11-11-11-11-11--|
D-4/9-9-9-9-9-9-9-9-9-9-9-9-9-9-9-9--10--11-11-11-11-11-11-11-11-11-11-11-11-11-11-11-11--|
A-2/7-7-7-7-7-7-7-7-7-7-7-7-7-7-7-7---8---9--9--9--9--9--9--9--9--9--9--9--9--9--9--9--9--|
E-----------------------------------------------------------------------------------------|

E------------------------------------------------------------------------------------------|
B------------------------------------------------------------------------------------------|
G-4/9-9-9-9-9-9-9-9-9-9-9-9-9-9-9-9--10--11-11-11-11-11-11-11-11--14-14-14-14-14-14-14-14--|
D-4/9-9-9-9-9-9-9-9-9-9-9-9-9-9-9-9--10--11-11-11-11-11-11-11-11--14-14-14-14-14-14-14-14--|
A-2/7-7-7-7-7-7-7-7-7-7-7-7-7-7-7-7---8---9--9--9--9--9--9--9--9--12-12-12-12-12-12-12-12--|
E------------------------------------------------------------------------------------------|

E--------------------------------------------------------------------------|
B--------------------------------------------------------------------------|
G-14-14-14-14-14-14-14-14-14-14-14-14-14-14-14-14-14-14-14-14-14-14-14-14--|
D-14-14-14-14-14-14-14-14-14-14-14-14-14-14-14-14-14-14-14-14-14-14-14-14--|
A-12-12-12-12-12-12-12-12-12-12-12-12-12-12-12-12-12-12-12-12-12-12-12-12--|
E--------------------------------------------------------------------------|

Chorus
Guitar 1
E-10-10-10-10-10-10-10-10-10-------------------------7-7-7-7-7-7-7-7------------------|
B----------------------------10-10-10-10-10-10-10-10-----------------8-8-8-8-8-8-8-8--|
G-------------------------------------------------------------------------------------|
D-------------------------------------------------------------------------------------|
A-------------------------------------------------------------------------------------|
E-------------------------------------------------------------------------------------|

Guitar 2
E---------------------------------------------------------------------|
B---------------------------------------------------------------------|
G-7-7-7-7-7-7-7-7-------------------4-4-4-4-4-4-4-4-------------------|
D-7-7-7-7-7-7-7-7--7-7-7-7-7-7-7-7--4-4-4-4-4-4-4-4--5-5-5-5-5-5-5-5--| x3
A-5-5-5-5-5-5-5-5--7-7-7-7-7-7-7-7--2-2-2-2-2-2-2-2--5-5-5-5-5-5-5-5--|
E------------------5-5-5-5-5-5-5-5-------------------3-3-3-3-3-3-3-3--|

End
Guitar 1
E-2-2-2-2-2-2-2-2-3-3-5-3-3-3-5-3--         -2-2-2-2-3--|
B-0-0-0-0-0-0-0-0-3-3-3-3-3-3-3-3--         -0-0-0-2-3--|
G----------------------------------         ------------|
D---------------------------------- x3 Then ------------|
A----------------------------------         ------------|
E----------------------------------         ------------|

Guitar 2
E-----------------------------------|
B-----------------------------------|
G-7-7-7-7-7-7-7-7-------------------|
D-7-7-7-7-7-7-7-7--7-7-7-7-7-7-7-7--|
A-5-5-5-5-5-5-5-5--7-7-7-7-7-7-7-7--|
E------------------5-5-5-5-5-5-5-5--|

E------------------------------------         -------------|
B------------------------------------         -------------|
G-4-4-4-4----------------------------         -4-4-4-------|
D-4-4-4-4--4-4-4-4--5-5-5-5-5-5-5-5-- x3 Then -4-4-4--4-5--|
A-2-2-2-2--4-4-4-4--5-5-5-5-5-5-5-5--         -2-2-2--4-5--|
E----------2-2-2-2--3-3-3-3-3-3-3-3--         --------2-3--|
Tap to rate this tab
# A B C D E F G H I J K L M N O P Q R S T U V W X Y Z