Song name
# A B C D E F G H I J K L M N O P Q R S T U V W X Y Z

Millencolin - Monkey Boogie tab

e|-------------------------------------------------------------------|
B|--------------------------------------------------9-7---7----9-7---|
G|--7-8-7-8-7-8-7---6----------6----7-8-7-8-7-8-7-8-----8------------|
D|----------------9---9-6-9------9-----------------------------------|
A|-------------------------------------------------------------------|
E|-------------------------------------------------------------------|

e|---------------------------------------------------------------------|
B|-2s12-12-12--9-12----9-7-9-7-5-7-5-----------------------------------|
G|---------------------------------------------------------------------|
D|---------------------------------------------------------------------|
A|---------------------------------------------------------------------|
E|---------------------------------------------------------------------|

and yeh, couldn't figure the rest...
Tap to rate this tab
# A B C D E F G H I J K L M N O P Q R S T U V W X Y Z