Song name
# A B C D E F G H I J K L M N O P Q R S T U V W X Y Z

Millencolin - Dance Craze tab

Song:Dance craze
Artist:Millencolin
Tabbed by:Dré

Intro

e|--------------------------------------|
B|--------------------------------------|
G|--------------------------------------|
D|--------------------------------------|
A|0-0-3-2-0-----3-2-0-----3-2-0-3-0-2-0-|
E|----------1-1-------3-3---------------|

Verse

e|--------------------|
B|--------------------|
G|--------------------|
D|2-2---------5-5-4-4-|
A|0-0-3-3-5-5-3-3-2-2-|
E|----1-1-3-3---------|

And someone told me bad boys…

e|--------------------------------|
B|--------------------------------|
G|--------------------------------|
D|2-2-2-------5-5-5-------5-5-4-4-|
A|0-0-0-3-3-3-3-3-3-5-5-5-3-3-2-2-|
E|------1-1-1-------3-3-3---------|

Solo

e|----------------------------------------------------------
B|-----------------------------------------------------10-8-
G|------------------------------9-9-10-9-7-------7-9-10-----
D|--------------------------7-5------------10-10------------
A|7-5-7-7-7-7-8-7-5---5-7-8---------------------------------
E|------------------8---------------------------------------

e|12-12-13-12--------15------------------------------------|
B|-----------15-13-12--------------------------------12/13-|
G|---------------------14-12-14-14-12----------------------|
D|-----------------------------------10-10-10-9-10-12------|
A|---------------------------------------------------------|
E|---------------------------------------------------------|
Tap to rate this tab
# A B C D E F G H I J K L M N O P Q R S T U V W X Y Z