Song name
# A B C D E F G H I J K L M N O P Q R S T U V W X Y Z

Millencolin - Chiquita Chaser tab

Chiquita Chaser by Millencolin
From Tiny Tunes
Tabbed by chargerbandit
Tabbed 7.7.2012

Ska!

(/) Slide Up  (\) Slide Down  (h) Hammer On  (p) Pull Off  (b) Bend (r) Release
(v) Vibrato (l) Let ring

intro - palm mute
E|-----------------------------------|
B|-----------------------------------|
G|-----------------------------------|
D|-7777777777777777------------------|
A|-5555555555555555------------------|
E|-----------------------------------|

riff1 - just repeat a lot
E|-2-----------------2---------------|
B|---333---------------333-----------|
G|-------4-22-4-2----------111-22----|
D|-----------------------------------|
A|-----------------------------------|
E|-----------------------------------|

main riff (also playing behind riff1) - repeats a lot through the song
E|-2-2--3-3--4-4--5-5----------------|
B|-3-3--3-3--5-5--5-5----------------|
G|-2-2--0-0--4-4--0-0----------------|
D|-----------------------------------|
A|-----------------------------------|
E|-----------------------------------|

chorus - "youre not the only one..." - slower
E|-2-2--3-3--4-4--3-3----------------|
B|-3-3--3-3--5-5--3-3----------------|
G|-2-2--0-0--4-4--0-0----------------|
D|-----------------------------------|
A|-----------------------------------|
E|-----------------------------------|

power chorus - "youre not the only one..." - more rocking
E|-----------------------------------|
B|-----------------------------------|
G|-----------------------------------|
D|-77777-------22222-----------------|
A|-55555-55555-22222-55555-----------|
E|-------33333-00000-33333-----------|

everything repeats a lot

riff2 - "walt jabsco,now thats what I call rude..."
starts off with palm muting the A power chord, then:
E|-----------------------------------|
B|-----------------------------------|
G|-----------------------------------|
D|-----------------------------------|
A|-55555-77777-----------------------|
E|-33333-55557-----------------------|

outro solo
E|-2-------2-------2-------5-3-2--5-3-2--5-3-2--532----|
B|---3333----3333----3333---------------------------3l-|
G|-----------------------------------------------------|
D|-----------------------------------------------------|
A|-----------------------------------------------------|
E|-----------------------------------------------------|

If you find and mistakes or want me to tab a punkrock song,
email me at: chargerbandit.69@gmail.com

Thats it!
Tap to rate this tab
# A B C D E F G H I J K L M N O P Q R S T U V W X Y Z