Song name
# A B C D E F G H I J K L M N O P Q R S T U V W X Y Z

Millencolin - Melack tab

Melack by Millencolin
From Melack (demo tape)
Tabbed by chargerbandit
Tabbed 8.9.2012

Sweet riffs!

(/) Slide Up  (\) Slide Down  (h) Hammer On  (p) Pull Off  (b) Bend (r) Release (v) 
Vibrato (l) Let ring

intro - repeat 4x
E|-----------------------------------|
B|-----------------------------------|
G|-----------------------------------|
D|-7-77-5----------------------------|
A|-5-55-3----------------------------|
E|-----------------------------------|

riff1 - second guitar plays this
E|-----------------------------------|
B|-----------------------------------|
G|-----------------------------------|
D|-7-77-5-7-77-5-3333-5555-----------|
A|-5-55-3-5-55-3-1111-3333-----------|
E|-----------------------------------|

lead guitar plays this
E|-----------------------------------|
B|-----------------------------------|
G|-3333-5-77-5-3-22------------------|
D|------------------3----------------|
A|-----------------------------------|
E|-----------------------------------|


riff2 - play 2x
E|-----------------------------------|
B|-----------------------------------|
G|-----------------------------------|
D|-7777------3333--------------------|
A|-5555------1111-3333---------------|
E|----------------1111---------------|

end on
E|-----------------------------------|
B|-----------------------------------|
G|-----------------------------------|
D|-5555-5555-------------------------|
A|-3333-3333-------------------------|
E|-----------------------------------|


ska part - upstrokes, each chord strum 2x
E|-2-0-1-1---------------------------|
B|-3-1-1-1---------------------------|
G|-2---------------------------------|
D|-----------------------------------|
A|-----------------------------------|
E|-----------------------------------|


riff3
E|-----------------------------------|
B|-----------------------------------|
G|-----------------------------------|
D|-7777-5555-3333-3333-5-5-----------|
A|-5555-3333-1111-1111-3-3-----------|
E|-----------------------------------|

chorus
E|------------------------------------------|
B|------------------------------------------|
G|------------------------------------------|
D|------5555-7777-7777-3333-5555------------|
A|-3333-3333-5555-5555-1111-3333-3333-3333--|
E|-1111--------------------------1111-1111--|

riff4 - rythm changes,play 2x
E|-----------------------------------|
B|-----------------------------------|
G|-----------------------------------|
D|-77777-33333-----------------------|
A|-55555-11111-----------------------|
E|-----------------------------------|

rythm changes again,play this
E|-----------------------------------|
B|-----------------------------------|
G|-----------------------------------|
D|-5555-7777-3333-5555---------------|
A|-3333-5555-1111-3333---------------|
E|-----------------------------------|

riff 5 "theres no control...", sort of an outro
E|-----------------------------------|
B|-----------------------------------|
G|-----------------------------------|
D|-3333-7777-5555--------------------|
A|-1111-5555-3333-3333-3l------------|
E|----------------1111-1l------------|

Then play intro 2x and riff1 + lead guitar and its done!

If you find and mistakes or want me to tab a punkrock song,
email me at: chargerbandit.69@gmail.com

Thats it!
Tap to rate this tab
# A B C D E F G H I J K L M N O P Q R S T U V W X Y Z