Song name
# A B C D E F G H I J K L M N O P Q R S T U V W X Y Z

Millencolin - Highway Donkey tab

-------------------------------------------------------------------------------
                             Millencolin - Highway Donkey
-------------------------------------------------------------------------------
Tabbed by: Lukey B

Went looking for the tabs because I was too lazy to use my ears. Turns out all the tabs
I found on the net for this solo were wrong so had to transcribe it anyway. So here it
is. It's pretty accurate.


Tuning: Standard

 E|-----------------------------------------------------------------------------|
 B|--7b----7b-7b---------------------------------------------7-8-10-8-7-8-7-----|
 G|--7b----7b-7b-----9b--------------7p6h7--------------7-9---------------------|
 D|-------------------9b-----------------------9-9------------------------------|
 A|-----------------------------------------------------------------------------|
 E|-----------------------------------------------------------------------------|

                                             |--Let each note ring--|

 e|---------------------------7-7-----7-----7-----------------------------------|
 B|-------------------------7-------7-----7-------------------------------------|
 G|--9-9--7-9b-7-------7-9-------9-----9-----9b-9p7---7-9h7---------------------|
 D|---------------9~---------------------------------9--------------------------|
 A|-----------------------------------------------------------------------------|
 E|-----------------------------------------------------------------------------|


************************************

| /   slide up
| \   slide down
| h   hammer-on
| p   pull-off
| ~   vibrato
| +   harmonic
| x   Mute note
| b   Bend
| pb  Pre-bend
| br  Bend release
| pbr Pre-bend release
| brb Bend release bend

************************************
Tap to rate this tab
 
# A B C D E F G H I J K L M N O P Q R S T U V W X Y Z