Song name
# A B C D E F G H I J K L M N O P Q R S T U V W X Y Z

Millencolin - Saved By Hell tab

Tab for the rhythm part of Saved by Hell - Millencolin. 
I am sorry for the rather complicated verse part, I could not really count the 
number of times the notes were hit. 
Therefore I used the lyrics as indication of changes and figures to indicate to 
which it changes. Hope this helps you!

Intro (repeat until singing start)

e|-------------------------|
B|-------------------------|
G|-------------------------|
D|-------------------------|
A|-5-5-5-5-5-5-5-5-5-5-5---|
E|--7-7-7-7-7-7-7-7-7-7-7--|

Verse
Figure 1(F1)              Figure 2(F2)           Figure 3(F3)
e|--------------|       e|----------------|     e|--------------|
B|--------------|       B|----------------|     B|--------------|
G|--------------|       G|----------------|     G|--------------|
D|--------------|       D|----------------|     D|--------------|
A|-5-5-5-5-5-5--|       A|-10-10-10-10-10-|     A|-7-7-7-7-7-7--|
E|--7-7-7-7-7-7-|       E|--12-12-12-12-12|     E|--9-9-9-9-9-9-|

   F#m
e|----|
B|----|
G|----|
D|-4--|
A|-4--|
E|-2--|

Chorus repeat twice (distortion
  I was saved             Or rather saved     Because      No it        
e|----------------------|-------------------|------------|----------|
B|----------------------|-------------------|------------|----------|
G|----------------------|-7/999-7/999-7/999-|------------|----------|
D|-7/99-7/99-7/99-7/99--|-7/999-7/999-7/999-|-7----------|--5-------|
A|-7/99-7/99-7/99-7/99--|-5/777-5/777-5/777-|-7----------|--5-------|
E|-5/77-5/77-5/77-5/77--|-------------------|-5----------|--3-------|
                                              Let ring     Let ring
To be doing well
e|----------------------|
B|----------------------|
G|----------------------|
D|-9-99-9-99-9-99-9-99--|
A|-7h99-7h99-7h99-7h99--|
E|-7-77-7-77-7-77-7-77--| Let the last chord ring at the end of the song

Ending of Chorus
e|------------|
B|------------|
G|-9----------|
D|-x----------|
A|-7--times 8-|
E|------------|

Verse (Clean)

F1
Trouble down on my own street 
F1                   F2
Domestic violence on repeat 
F3                   F1
Smashed up doors and yelling again
F2               F1
Some say you are insane 
F1
But I don't think so I love you 
F1                       F2
When you are smiling I am too 
F3                           F1
The only troubles I have are yours 
F3                    F1
Please just make them end 
F3                     F1
Until they find you something that cures 
F3               F#m
I hide away at friends 


Repeat the verse and Chorus the same.
I will try to get the solo part done as well, but might take me a bit longer. 
I'll gladly hear any comments!
Tap to rate this tab
# A B C D E F G H I J K L M N O P Q R S T U V W X Y Z