Song name
# A B C D E F G H I J K L M N O P Q R S T U V W X Y Z

Millencolin - Carry You tab

-----------------------------------------------------------------------------
                           Carry You - Millencolin
-----------------------------------------------------------------------------
Tabbed by: BlenderBR
E-mail: fabiosignori.zero@hotmail.com

Intro : 

Guitar 1

e|----------------------------------------------------|
B|----------------------------------------------------|
G|-999999999999999999999999999999999999999------------|
D|-999999999999999999999999999999999999999------------|
A|-777777777777777777777777777777777777777------------|
E|----------------------------------------------------|
   xxxxxxxxxxxxxxxxxxxxxxxxxxxxxxxxxxxxxxx

Guitar 2 

e|--------------------------------|
B|--------------------------------|
G|--------------------------------|
D|-9999911111999111199999999------|  3x during the intro
A|--------------------------------|
E|--------------------------------|
   xxxxxxxxxxxxxxxxxxxxxxxxx
P.S - This are '11'

Drum and bass get in

Guitar 1 

e|------------------------------------------------------|
B|------------------------------------------------------|
G|--99999999999999999999999-----------------------------|
D|--99999999999999999999999-99999999999-77777777--------|
A|--77777777777777777777777-99999999999-77777777--------| 2x
E|--------------------------77777777777-55555555--------|

Guitar 2 

e|-------------------------------------------------------------------|
B|-------------------------------------------------------------------|
G|--9--14-131313--11-9---9-12-131313-11-9---11-9-8888-9999-11-14-13--|
D|--x--x--xxxxxx--x--x---x-x--xxxxxx-x--x---x--x-xxxx-xxxx-x--x--x---|
A|--7--12-111111--9--7---7-12-111111-9--7---9--7-6666-7777-9--12-11--| 2x
E|-------------------------------------------------------------------|

- Verse 1 
(I'm going to follow you down into the sea...)

e|----------------------------------------------|
B|----------------------------------------------|
G|-99999999999999999----------------------------|
D|-99999999999999999-99999999999-777777777------|
A|-77777777777777777-99999999999-777777777------|  2x
E|-------------------77777777777-555555555------|

- Chorus 
(And i'm telling you i believe the way, i'm telling you)

Guitar 1

e|----------------------------------------------|
B|----------------------------------------------|
G|-99999999999999999----------------------------|
D|-99999999999999999-99999999999-777777777------|
A|-77777777777777777-99999999999-777777777------|  2x
E|-------------------77777777777-555555555------|

Guitar 2 

e|--------------------------------------------------------------|
B|--------------------------------------------------------------|
G|--9--14-131313--9---9-12-131313--9---11-9-8888-9999-11-14-13--|
D|--x--x--xxxxxx--x---x-x--xxxxxx--x---x--x-xxxx-xxxx-x--x--x---|
A|--7--12-111111--7---7-12-111111--7---9--7-6666-7777-9--12-11--| 2x
E|--------------------------------------------------------------|

- Verse 2
(Come on and leave this mess, we don't need distress...)

e|----------------------------------------------|
B|----------------------------------------------|
G|-99999999999999999----------------------------|
D|-99999999999999999-99999999999-777777777------|
A|-77777777777777777-99999999999-777777777------|  2x
E|-------------------77777777777-555555555------|

- Chorus 
(And i'm telling you i believe the way, i'm telling you)

Guitar 1

e|----------------------------------------------|
B|----------------------------------------------|
G|-99999999999999999----------------------------|
D|-99999999999999999-99999999999-777777777------|
A|-77777777777777777-99999999999-777777777------|  2x
E|-------------------77777777777-555555555------|

Guitar 2 

e|--------------------------------------------------------------|
B|--------------------------------------------------------------|
G|--9--14-131313--9---9-12-131313--9---11-9-8888-9999-11-14-13--|
D|--x--x--xxxxxx--x---x-x--xxxxxx--x---x--x-xxxx-xxxx-x--x--x---|
A|--7--12-111111--7---7-12-111111--7---9--7-6666-7777-9--12-11--| 2x
E|--------------------------------------------------------------|

- Bridge 
(In the light of day, i hope that you will try your best...)

e|---------------------------------------|
B|---------------------------------------|
G|-6666666666666666----------44444444----|
D|-6666666666666666-77777777-44444444----|
A|-4444444444444444-77777777-22222222----|
E|------------------55555555-------------|

e|-----------------------------------------|
B|-----------------------------------------|
G|-6666666666666666----------44444444-4-6--|
D|-6666666666666666-77777777-44444444-4-6--|
A|-4444444444444444-77777777-22222222-2-4--|
E|------------------55555555---------------|

(This is all i ever asked for, i know the game...)

e|-----------------------------------------|
B|-----------------------------------------|
G|-----------------666666666-44444444------|
D|-777777777777777-666666666-44444444------|
A|-777777777777777-444444444-22222222------| 3x
E|-555555555555555-------------------------|

e|------------------------------------------------|
B|------------------------------------------------|
G|------------------------------------------------|
D|-777777777777777-9999999999999------------------|
A|-777777777777777-9999999999999------------------|
E|-555555555555555-7777777777777------------------|

- Solo

Guitar 1 

e|-----------------------------------------|
B|-----------------------------------------|
G|--99999999-------------------------------|
D|--99999999-999999999-77777777------------|
A|--77777777-999999999-77777777------------| 4x
E|-----------777777777-55555555------------|

Guitar 2

e|----------------------------------------9---9--------------------|
B|-9-9-9-------------9-11---------------7-9-7-9-7-9-7---7-9-12-----|
G|-9-9-9--9--11--9-9------9---9--11-99---------------9-------------|
D|-----------------------------------------------------------------|
A|-----------------------------------------------------------------|
E|-----------------------------------------------------------------|

e|-14-12-11-9-7----------------------------------------------------|
B|-------------9-7-----------9-8-6----------7-9-5------------------|
G|-----------------9-7-------9-8-6--7-9-77-------------------------|
D|---------------------9-7~----------------------------------------|
A|-----------------------------------------------------------------|
E|-----------------------------------------------------------------|

- Chorus 
(I believe the way, i'm telling you)

Guitar 1

e|----------------------------------------------|
B|----------------------------------------------|
G|-99999999999999999----------------------------|
D|-99999999999999999-99999999999-777777777------|
A|-77777777777777777-99999999999-777777777------|  2x
E|-------------------77777777777-555555555------|

Guitar 2 

e|--------------------------------------------------------------|
B|--------------------------------------------------------------|
G|--9--14-131313--9---9-12-131313--9---11-9-8888-9999-11-14-13--|
D|--x--x--xxxxxx--x---x-x--xxxxxx--x---x--x-xxxx-xxxx-x--x--x---|
A|--7--12-111111--7---7-12-111111--7---9--7-6666-7777-9--12-11--| 2x
E|--------------------------------------------------------------|

(Yeah, you know what i'm talking about, i've just stayed up...)

Guitar 1

e|----------------------------------------------|
B|----------------------------------------------|
G|-99999999999999999----------------------------|
D|-99999999999999999-99999999999-777777777------|
A|-77777777777777777-99999999999-777777777------|  2x
E|-------------------77777777777-555555555------|

Guitar 2 

e|----------------------------------------9---9--------------------|
B|-9-9-9-------------9-11---------------7-9-7-9-7-9-7---7-9-12-----|
G|-9-9-9--9--11--9-9------9---9--11-99---------------9-------------|
D|-----------------------------------------------------------------|
A|-----------------------------------------------------------------|
E|-----------------------------------------------------------------|

************************************

| /   slide up
| \   slide down
| h   hammer-on
| p   pull-off
| ~   vibrato
| +   harmonic
| x   Mute note
| b   Bend
| pb  Pre-bend
| br  Bend release
| pbr Pre-bend release
| brb Bend release bend

************************************
Tap to rate this tab
 
# A B C D E F G H I J K L M N O P Q R S T U V W X Y Z