Song name
# A B C D E F G H I J K L M N O P Q R S T U V W X Y Z

Millencolin - No Cigar tab

------------------------------------------------------------------------------
                            No Cigar - Millencolin
------------------------------------------------------------------------------
Tabbed by: Fabio-BlenderBR


  - Intro 

e|-----------------------------------------------------------------|
B|--5-5-5-5-4-4-4-4-5-4-5-5-5-5-4-4-4-4-5-4-5-5-5-5-4-4-4-4-5-4----|
G|--6-6-6-6-6-6-6-6-6-6-6-6-6-6-6-6-6-6-6-6-6-6-6-6-6-6-6-6-6-6----|
D|-----------------------------------------------------------------| 
A|-----------------------------------------------------------------|
E|-----------------------------------------------------------------|

Band gets in...

Guitar 1
e|--------------------------------------------------------|
B|--------------------------------------------------------|
G|-6-6-6-6-6-6-9-9-9-9-9-9--------------------------------|
D|-6-6-6-6-6-6-9-9-9-9-9-9-7-7-7-7-7-7-4-4-4-4-4-4--------|  2x
A|-4-4-4-4-4-4-7-7-7-7-7-7-7-7-7-7-7-7-4-4-4-4-4-4--------|
E|-------------------------5-5-5-5-5-5-2-2-2-2-2-2--------|

Guitar 2
e|-----------------------------------------------------------------------|
B|-5-5-5-5-4-4-4-4-5-5-5-5-4-4-4-4-5-4-5-5-5-5-4-4-4-4-5-5-5-5-4-4-4-5-4-|
G|-6-6-6-6-6-6-6-6-6-6-6-6-6-6-6-6-6-6-6-6-6-6-6-6-6-6-6-6-6-6-6-6-6-6-6-|
D|-----------------------------------------------------------------------| 
A|-----------------------------------------------------------------------| 2x
E|-----------------------------------------------------------------------|

  - Verse 1
(Tell us where you're from, what you want to become...)

e|--------------------------------------------------------|
B|--------------------------------------------------------|
G|-6-6-6-6-6-6-9-9-9-9-9-9--------------------------------|
D|-6-6-6-6-6-6-9-9-9-9-9-9-7-7-7-7-7-7-4-4-4-4-4-4--------|  2x
A|-4-4-4-4-4-4-7-7-7-7-7-7-7-7-7-7-7-7-4-4-4-4-4-4--------|
E|-------------------------5-5-5-5-5-5-2-2-2-2-2-2--------|
  

(You get a sticker in your face, Information about the case...)

Guitar 1
e|--------------------------------------------------------|
B|--------------------------------------------------------|
G|-6-6-6-6-6-6-9-9-9-9-9-9--------------------------------|
D|-6-6-6-6-6-6-9-9-9-9-9-9-7-7-7-7-7-7-4-4-4-4-4-4--------|  2x
A|-4-4-4-4-4-4-7-7-7-7-7-7-7-7-7-7-7-7-4-4-4-4-4-4--------|
E|-------------------------5-5-5-5-5-5-2-2-2-2-2-2--------|

Guitar 2
e|-----------------------------------------------------------------|
B|--5-5-5-5-4-4-4-4-5-5-5-5-4-5-4-4-4-4-5-5-5-5-4-5-4-4-4-4-5-4----|
G|--6-6-6-6-6-6-6-6-6-6-6-6-6-6-6-6-6-6-6-6-6-6-6-6-6-6-6-6-6-6----|
D|-----------------------------------------------------------------| 
A|-----------------------------------------------------------------| 2x
E|-----------------------------------------------------------------|


  - Pre Chorus
(But I don't wanna hear it, no, it's more than I accept...)

Guitar 1
e|---------------------------------------|
B|---------------------------------------|
G|---------------------------------------|
D|---7-7-7-7-7-7-7-7-7-7-7-7-7-7-7-7-----|
A|---7-7-7-7-7-7-7-7-7-7-7-7-7-7-7-7-----|
E|---5-5-5-5-5-5-5-5-5-5-5-5-5-5-5-5-----|
     

Guitar 2
e|---------------------------------------------------------|
B|--5-5-5-5-5-5-5-5-5-5-5-5--5-5-5-5-4-4-4-4-5-5-5-5-4-5---|
G|--6-6-6-6-6-6-6-6-6-6-6-6--6-6-6-6-6-6-6-6-6-6-6-6-6-6---|
D|---------------------------------------------------------| 
A|---------------------------------------------------------|
E|---------------------------------------------------------|

  - Chorus
(I don't care where I belong no more...)

e|--------------------------------------------------------|
B|--------------------------------------------------------|
G|--9-9-9-9-9-9-11-11-11-11-11-11--14-14-14-14-14-14------|
D|--x-x-x-x-x-x--x--x--x--x--x--x---x--x--x--x--x--x------|
A|--7-7-7-7-7-7--9--9--9--9--9--9--12-12-12-12-12-12------|
E|--------------------------------------------------------|

e|----------------------------------------------------------------------|
B|----------------------------------------------------------------------|
G|--9-9-9-9-9-9-11-11-11-11-11-11--14-14-14-14-14-14---9-9-11-11-14-14--|
D|--x-x-x-x-x-x--x--x--x--x--x--x---x--x--x--x--x--x---x-x--x--x--x--x--|
A|--7-7-7-7-7-7--9--9--9--9--9--9--12-12-12-12-12-12---7-7--9--9-12-12--|
E|----------------------------------------------------------------------|

  - Intro

Guitar 1
e|--------------------------------------------------------|
B|--------------------------------------------------------|
G|-6-6-6-6-6-6-9-9-9-9-9-9--------------------------------|
D|-6-6-6-6-6-6-9-9-9-9-9-9-7-7-7-7-7-7-4-4-4-4-4-4--------|  2x
A|-4-4-4-4-4-4-7-7-7-7-7-7-7-7-7-7-7-7-4-4-4-4-4-4--------|
E|-------------------------5-5-5-5-5-5-2-2-2-2-2-2--------|

Guitar 2
e|-----------------------------------------------------------------------|
B|-5-5-5-5-4-4-4-4-5-5-5-5-4-4-4-4-5-4-5-5-5-5-4-4-4-4-5-5-5-5-4-4-4-5-4-|
G|-6-6-6-6-6-6-6-6-6-6-6-6-6-6-6-6-6-6-6-6-6-6-6-6-6-6-6-6-6-6-6-6-6-6-6-|
D|-----------------------------------------------------------------------| 
A|-----------------------------------------------------------------------| 2x
E|-----------------------------------------------------------------------|


  - Verse 2
(We will shut you out...)

Guitar 1
e|-------|
B|-------|
G|--6----|
D|--x----| Let Ring
A|--4----|
E|-------|

Guitar 2
e|-------|
B|--5----|
G|--6----|
D|-------| Let Ring
A|-------|
E|-------|

(We'll tell you who you are...)

Guitar 1
e|------------------------------------------------------------------|
B|------------------------------------------------------------------|
G|--6-6-6-6-6-6-9-9-9-9-9-9-11-11-11-11-11-13-13-13-13-13-14-14-14--|
D|--6-6-6-6-6-6-9-9-9-9-9-9-11-11-11-11-11--x--x--x--x--x--x--x--x--|
A|--4-4-4-4-4-4-7-7-7-7-7-7--9--9--9--9--9-11-11-11-11-11-12-12-12--|
E|------------------------------------------------------------------|

Guitar 2
e|-------------------------------------------------------------|
B|------5---5---5---5---5---5---5---5---5---5---5---5---5---5--|
G|----6---6---6---6---6---6---6---6---6---6---6---6---6---6----|
D|-------------------------------------------------------------|
A|-------------------------------------------------------------|
E|-------------------------------------------------------------|

  - Pre Chorus
(But I don't wanna hear it, no, it's more than I accept...)

Guitar 1
e|---------------------------------------|
B|---------------------------------------|
G|---------------------------------------|
D|---7-7-7-7-7-7-7-7-7-7-7-7-7-7-7-7-----|
A|---7-7-7-7-7-7-7-7-7-7-7-7-7-7-7-7-----|
E|---5-5-5-5-5-5-5-5-5-5-5-5-5-5-5-5-----|
     ............................... PM

Guitar 2
e|---------------------------------------------------------|
B|--5-5-5-5-5-5-5-5-5-5-5-5--4-4-4-4-5-5-5-5-4-4-4-4-5-4---|
G|--6-6-6-6-6-6-6-6-6-6-6-6--6-6-6-6-6-6-6-6-6-6-6-6-6-6---|
D|---------------------------------------------------------| 
A|---------------------------------------------------------|
E|---------------------------------------------------------|

  - Chorus
(I don't care where I belong no more...)

e|--------------------------------------------------------|
B|--------------------------------------------------------|
G|--9-9-9-9-9-9-11-11-11-11-11-11--14-14-14-14-14-14------|
D|--x-x-x-x-x-x--x--x--x--x--x--x---x--x--x--x--x--x------|
A|--7-7-7-7-7-7--9--9--9--9--9--9--12-12-12-12-12-12------| 4x
E|--------------------------------------------------------|

e|---------------------|
B|---------------------|
G|--9-9-11-11--14-14---|
D|--x-x--x--x---x--x---|
A|--7-7--9--9--12-12---|
E|---------------------|

  - Bridge 
(What they say is...Go back, where you came from...)

Guitar 1
e|---------------------------------------------------------------------|
B|---------------------------------------------------------------------|
G|-11-11-11-11--11-11-11-11---14-14-14-14--14-14-14-14---11-11-11-11---|
D|-11-11-11-11--11-11-11-11---14-14-14-14--14-14-14-14---11-11-11-11---|
A|--9--9--9--9---9--9--9--9---12-12-12-12--12-12-12-12----9--9--9--9---|
E|---------------------------------------------------------------------|

Guitar 2
e|-5-5-5-5-4-4-4-4-5-4-5-5-5-5-4-4-4-4-5-4-5-5-5-5-4-4-4-5-4-5-5-5-5---|
B|-5-5-5-5-5-5-5-5-5-5-5-5-5-5-5-5-5-5-5-5-5-5-5-5-5-5-5-5-5-5-5-5-5---|
G|---------------------------------------------------------------------|
D|---------------------------------------------------------------------|
A|---------------------------------------------------------------------|
E|---------------------------------------------------------------------|

(No I don't wanna hear. No I don't wanna hear it...)

Guitar 1
e|----------------------------------------------|
B|----------------------------------------------|
G|-6-6-6-6-9-9-9-9--14-14-14-14-14-14-14-14-----|
D|-6-6-6-6-9-9-9-9---x--x--x--x--x--x--x--x-----|
A|-4-4-4-4-7-7-7-7--12-12-12-12-12-12-12-12-----|
E|----------------------------------------------|

Guitar 2
e|-5-5-5-5-4-4-4-4--5-4-5-4-5-4-5-4-5-4-5-4-----|
B|-5-5-5-5-5-5-5-5--5-5-5-5-5-5-5-5-5-5-5-5-----|
G|----------------------------------------------|
D|----------------------------------------------|
A|----------------------------------------------|
E|----------------------------------------------|


  - Chorus
(I don't care where I belong no more...)

e|--------------------------------------------------------|
B|--------------------------------------------------------|
G|--9-9-9-9-9-9-11-11-11-11-11-11--14-14-14-14-14-14------|
D|--x-x-x-x-x-x--x--x--x--x--x--x---x--x--x--x--x--x------|
A|--7-7-7-7-7-7--9--9--9--9--9--9--12-12-12-12-12-12------| 4x
E|--------------------------------------------------------|

e|---------------------|
B|---------------------|
G|--9-9-11-11--14-14---|
D|--x-x--x--x---x--x---|
A|--7-7--9--9--12-12---|
E|---------------------|

  - End
Guitar 1 
e|------------------------------------------------|
B|------------------------------------------------|
G|--9-9-9-9-9-9-9-9-9-9---14-14-14-14-14-14-14----|
D|--9-9-9-9-9-9-9-9-9-9---14-14-14-14-14-14-14----|
A|--7-7-7-7-7-7-7-7-7-7---12-12-12-12-12-12-12----|
E|------------------------------------------------|

Guitar 2
e|------------------------------------------------|
B|--5-5-5-5-4-4-4-4-5-4---5-5-5-5-4-4-4-4-5-4-----|
G|--6-6-6-6-6-6-6-6-6-6---6-6-6-6-6-6-6-6-6-6-----|
D|------------------------------------------------| 
A|------------------------------------------------|
E|------------------------------------------------|
Tap to rate this tab
# A B C D E F G H I J K L M N O P Q R S T U V W X Y Z