Song name
# A B C D E F G H I J K L M N O P Q R S T U V W X Y Z

Millencolin - Chiquita Chaser tab

CHIQUITA CHASER        BASS TAB
By Millencolin
this is a good  punk ska tune from the album "same old tune".
Easy!!!!
tabbed by ToM    dreadtom182@hotmail.com

intro
G/ ------------------------
D/ ------------------------     2 TIMES
A/ 5-5-------------0-4-4-5-
E/ ----2-3-2-0-3-3---------


VERSE:       keep going playing the intro

CHORUS:

G/---------------------------
D/---------------------------      2 TIMES
A/-5-5--5--------------------     
E/--------3-3--3-0-0--0-3-3-3


END:

 G  
Walt Jabsco...
                                      2 times
 A
now that's what I call rude
Tap to rate this tab
# A B C D E F G H I J K L M N O P Q R S T U V W X Y Z