Guitaretab - guitar tabs
Song name
# A B C D E F G H I J K L M N O P Q R S T U V W X Y Z

Millencolin - The Mayfly tab

email :pwrmason@tiscali.co.uk
tabber :peter mason
song :the mayfly
band :millencolin
album :pennybridge pioneers

tuning :e a d g b e

I'm pretty sure this is it, but the timing is slightly out.
This is currently my first millencolin song I've tabbed out but
there will be more coming. I hope you like my tab and also
please e-mail me if there is anything wrong with my tab and I will
change it.

intro

e|----xx-77-xx-77-xx-745---7---7-7-
a|-77-xx-99-xx-99-xx-967-4-9-4-9497
d|-99-xx-99-xx-99-xx-967-6-9-6-9699
g|-99--------------------6---6-6-9
b|---------------------------------
e|---------------------------------

verse

e|----xx-77-xx-77-xx-745---7---7-7-
a|-77-xx-99-xx-99-xx-967-4-9-4-9497
d|-99-xx-99-xx-99-xx-967-6-9-6-9699
g|-99--------------------6---6-6-9
b|---------------------------------
e|---------------------------------

e|----xx-77-xx-77-xx-745---7---7-7-
a|-77-xx-99-xx-99-xx-967-4-9-4-9497
d|-99-xx-99-xx-99-xx-967-6-9-6-9699
g|-99--------------------6---6-6-9
b|---------------------------------
e|---------------------------------

e|----xx-77-xx-77-xx-55-xx-55-xx-55-xx-55--
a|-77-xx-99-xx-99-xx-77-xx-77-xx-77-xx-77--
d|-99-xx-99-xx-99-xx-77-xx-77-xx-77-xx-77--
g|-99--------------------------------------
b|-----------------------------------------
e|-----------------------------------------

[ Tab from: http://www.guitaretab.com/m/millencolin/41377.html ]
e|----xx-77-xx-77-xx-745---7---7-7-
a|-77-xx-99-xx-99-xx-967-4-9-4-9497
d|-99-xx-99-xx-99-xx-967-6-9-6-9699
g|-99--------------------6---6-6-9
b|---------------------------------
e|---------------------------------
chorus

e|--------7------5-------------7------5-------------7------5-----
a|7-------9-(x8)-7-(x8)7-------9-(x8)-7-(x8)7-------9-(x8)-7-(x8)
d|9-(x16)-9------7-----9-(x16)-9------7-----9-(x16)-9------7-----
g|9--------------------9--------------------9--------------------
b|---------------------------------------------------------------
e|---------------------------------------------------------------

e|--------7------5-
a|7-------9-(x8)-7-
d|9-(x16)-9------7-
g|9----------------
b|-----------------
e|-----------------

verse 2

e|----------------
a|----------------
d|----------------
g|--bass-solo-----
b|----------------
e|----------------

e|----xx-77-xx-77-xx-55-xx-55-xx-55-xx-55-x
a|-77-xx-99-xx-99-xx-77-xx-77-xx-77-xx-77-x
d|-99-xx-99-xx-99-xx-77-xx-77-xx-77-xx-77-x
g|-99--------------------------------------
b|-----------------------------------------
e|-----------------------------------------interlude

e|-7-7-7-7-7-7-7-7-5-5-5-5-5-5-5-5-
a|-9-9-9-9-9-9-9-9-7-7-7-7-7-7-7-7-
d|-9-9-9-9-9-9-9-9-7-7-7-7-7-7-7-7-
g|---------------------------------
b|---------------------------------
e|---------------------------------

solo

e|
a|
d| I can't be bothered (I'm to lazy)
g|
b|
e|

order of song:
intro(x2)
verse(x1)
chorus(x1)
intro(x2)
verse 2(x1)
chorus(x1)
interlude(x2)
solo(x1)
chorus(x1)
Related for The Mayfly tab