Song name
# A B C D E F G H I J K L M N O P Q R S T U V W X Y Z

Millencolin - A Bit Of Muslin tab

A BIT OF MUSLIN - Millencolin


intro:
e|-5-5-8-8-6-6---8|x4
B|-5-5-8-8-6-6---8|
G|-6-6-9-9-7-7---9|
D|----------------|
A|----------------|
E|----------------|


verse:
e|-5-5-8-8-6-6---8|
B|-5-5-8-8-6-6---8|
G|-6-6-9-9-7-7---9|
D|----------------|
A|----------------|
E|----------------|




chorus:
e|---------------------------------------------------------------|
B|---------------------------------------------------------------|
G|-7-7-7-7-7-7-7-7---------5-5-5-5--7-7-7-7-7-7-7---------5-5-5-5|
D|-7-7-7-7-7-7-7-7-3-3-3-3-5-5-5-5--7-7-7-7-7-7-7-3-3-3-3-5-5-5-5|
A|-5-5-5-5-5-5-5-5-3-3-3-3-3-3-3-3--5-5-5-5-5-5-5-3-3-3-3-3-3-3-3|
E|-----------------1-1-1-1------------------------1-1-1-1--------|


e|------------------------------------------------------------------------|
B|------------------------------------------------------------------------|
G|---------5-5-5-5---------5-5-5-5---------5-5-5-5-------------5-5-5-5-5-5|
D|-5-5-5-5-5-5-5-5-3-3-3-3-5-5-5-5-5-5-5-5-5-5-5-5-3-3-3-3-3-3-5-5-5-5-5-5|
A|-5-5-5-5-3-3-3-3-3-3-3-3-3-3-3-3-5-5-5-5-3-3-3-3-3-3-3-3-3-3-3-3-3-3-3-3|
E|-3-3-3-3---------1-1-1-1---------3-3-3-3---------1-1-1-1-1-1------------|


verse:
e|-5-5-8-8-6-6---8|
B|-5-5-8-8-6-6---8|
G|-6-6-9-9-7-7---9|
D|----------------|
A|----------------|
E|----------------|


chorus:
e|---------------------------------------------------------------|
B|---------------------------------------------------------------|
G|-7-7-7-7-7-7-7-7---------5-5-5-5--7-7-7-7-7-7-7---------5-5-5-5|
D|-7-7-7-7-7-7-7-7-3-3-3-3-5-5-5-5--7-7-7-7-7-7-7-3-3-3-3-5-5-5-5|
A|-5-5-5-5-5-5-5-5-3-3-3-3-3-3-3-3--5-5-5-5-5-5-5-3-3-3-3-3-3-3-3|
E|-----------------1-1-1-1------------------------1-1-1-1--------|


e|------------------------------------------------------------------------|
B|------------------------------------------------------------------------|
G|---------5-5-5-5---------5-5-5-5---------5-5-5-5-------------5-5-5-5-5-5|
D|-5-5-5-5-5-5-5-5-3-3-3-3-5-5-5-5-5-5-5-5-5-5-5-5-3-3-3-3-3-3-5-5-5-5-5-5|
A|-5-5-5-5-3-3-3-3-3-3-3-3-3-3-3-3-5-5-5-5-3-3-3-3-3-3-3-3-3-3-3-3-3-3-3-3|
E|-3-3-3-3---------1-1-1-1---------3-3-3-3---------1-1-1-1-1-1------------|



solo:
e|------------1411------------12----1414-141414141414---|
B|-1212-1212------11-----1012-12---------141414141414-14|
G|-1313-1313---------1012-------------------------------|
D|-------------------------------12---------------------|
A|------------------------------------------------------|
E|------------------------------------------------------|



chorus:
e|---------------------------------------------------------------|
B|---------------------------------------------------------------|
G|-7-7-7-7-7-7-7-7---------5-5-5-5--7-7-7-7-7-7-7---------5-5-5-5|
D|-7-7-7-7-7-7-7-7-3-3-3-3-5-5-5-5--7-7-7-7-7-7-7-3-3-3-3-5-5-5-5|
A|-5-5-5-5-5-5-5-5-3-3-3-3-3-3-3-3--5-5-5-5-5-5-5-3-3-3-3-3-3-3-3|
E|-----------------1-1-1-1------------------------1-1-1-1--------|


e|--------------------------------------------------------------------------|
B|--------------------------------------------------------------------------|
G|---------5-5-5-5---------5-5-5-5---------5-5-5-5-------------5-5-5-5-5-5-7|
D|-5-5-5-5-5-5-5-5-3-3-3-3-5-5-5-5-5-5-5-5-5-5-5-5-3-3-3-3-3-3-5-5-5-5-5-5-7|
A|-5-5-5-5-3-3-3-3-3-3-3-3-3-3-3-3-5-5-5-5-3-3-3-3-3-3-3-3-3-3-3-3-3-3-3-3-5|
E|-3-3-3-3---------1-1-1-1---------3-3-3-3---------1-1-1-1-1-1--------------|


=============================================================================
Tap to rate this tab
# A B C D E F G H I J K L M N O P Q R S T U V W X Y Z