Guitaretab - guitar tabs
Song name
# A B C D E F G H I J K L M N O P Q R S T U V W X Y Z

Millencolin - Greener Grass tab

Hey, this is my first tab, and it seems 99% accurate.  I haven't seen any tabs for this 
so I decided to spend a few hours tabbing it.

Standard Tuning.

Intro Part 1  (quickly alternate strum the first chord 24 times, both guitars)
Guitar 1
e||------------------------------------------|
B||------------------------------------------|
G||---11-------------------------------------|
D||---11-------------------------------------|
A||----9----5--------------------------------|
E||------------4--5--4--2--0-----------------|
     (24)
Guitar 2
e||-------------------------|
B||-------------------------|
G||---11----7-7-7-----------|
D||---11----7-7-7--7-7-7--2-|
A||----9----5-5-5--7-7-7--2-|
E||----------------7-5-5--0-|
     (24)

Intro Part 2 (0:06)
e||------------------------------------------------------------|
B||------------------------------------------------------------|
G||------------------------------------------------------------|
D||--4-x-4-x-4-x-4--7-7-7--2-2-2----4-x-4-x-4-x-4--------------|
A||--4-x-4-x-4-x-4--7-7-7--2-2-2----4-x-4-x-4-x-4--5-----------|
E||--2-x-2-x-2-x-2--5-5-5--0-0-0----2-x-2-x-2-x-2----4-5-4-2-0-|

Verse Part I x2 (0:18)
e||-------------------------------------------------------------|
B||-------------------------------------------------------------|
G||-------------------------------------------------------------|
D||-----------------------------------4-x-4-x-4-x-4-------------|
A||----------------5--4---------------4-x-4-x-4-x-4--5----------|
E||--2--5--0----2----------2--5--0----2-x-2-x-2-x-2----4-5-4-2-0|

Verse Part II (0:41)
e||---------------------------------------------------------------|
B||---------------------------------------------------------------|
G||--7-7-7-7--9-9-9-9-----------(strummed quickly)--7-7-7-7--9-9-9|
D||--7-7-7-7--9-9-9-9--7-7--6-6--4-4-4-4-4-4-4------7-7-7-7--9-9-9|
A||--5-5-5-5--7-7-7-7--7-7--6-6--4-4-4-4-4-4-4------5-5-5-5--7-7-7|
E||--------------------5-5--4-4--2-2-2-2-2-2-2--------------------|

Chorus x4  (0:50)
e||-----------------------------|
B||-----------------------------|
G||-----------------------------|
D||--4-x-4-x-4-x-4--7-7-7--2-2-2|
A||--4-x-4-x-4-x-4--7-7-7--2-2-2|
E||--2-x-2-x-2-x-2--5-5-5--0-0-0|

Verse Part I x2  (1:02)
e||-------------------------------------------------------------|
B||-------------------------------------------------------------|
G||-------------------------------------------------------------|
D||-----------------------------------4-x-4-x-4-x-4-------------|
A||----------------5--4---------------4-x-4-x-4-x-4--5----------|
E||--2--5--0----2----------2--5--0----2-x-2-x-2-x-2----4-5-4-2-0|

[ Tab from: http://www.guitaretab.com/m/millencolin/49847.html ]
Verse Part II (1:26)
e||---------------------------------------------------------------|
B||---------------------------------------------------------------|
G||--7-7-7-7--9-9-9-9-----------(strummed quickly)--7-7-7-7--9-9-9|
D||--7-7-7-7--9-9-9-9--7-7--6-6--4-4-4-4-4-4-4------7-7-7-7--9-9-9|
A||--5-5-5-5--7-7-7-7--7-7--6-6--4-4-4-4-4-4-4------5-5-5-5--7-7-7|
E||--------------------5-5--4-4--2-2-2-2-2-2-2--------------------|

Chorus x4  (1:34)
e||-----------------------------|
B||-----------------------------|
G||-----------------------------|
D||--4-x-4-x-4-x-4--7-7-7--2-2-2|
A||--4-x-4-x-4-x-4--7-7-7--2-2-2|
E||--2-x-2-x-2-x-2--5-5-5--0-0-0|

Pre-Bridge (1:46)			(1:49)
Guitar 1			 Guitar 2 (pickslide down neck)
e||-----------------|          e||-----------------|
B||-----------------|          B||-----------------|
G||-----------------|          G||--X \------------|
D||--4--------------|          D||--X \------------|
A||--4--(let ring)--|          A||-----------------|
E||--2--------------|          E||-----------------|

Bridge  (1:52)
(quickly alternate strum the first two chords 16 times, the last 2 8 times)
e||----------------5-4-2-0-------------------5-4-5-0------|
B||-------------------------------------------------------|
G||-------------------------------------------------------|
D||--4--7----9--12-------------4--7----9--12--------------|
A||--4--7----9--12------------4--7----9--12--------------|
E||--2--5----7--10-------------2--5----7--12--------------|
   (16)(16) (8) (8)          (16)(16) (8) (8)


Outro (2:15)
e||-------------------------------------------------|
B||-------------------------------------------------|
G||--7-7-7-7--9-9-9-9-----------(strummed quickly)--|
D||--7-7-7-7--9-9-9-9--7-7--6-6--4-4-4-4-4-4-4------|  x2
A||--5-5-5-5--7-7-7-7--7-7--6-6--4-4-4-4-4-4-4------|
E||--------------------5-5--4-4--2-2-2-2-2-2-2------|

e||----------------------------------------------------------|
B||----------------------------------------------------------|
G||--7-7-7-7--9-9-9-9----7-7-7-7--9-9-9-9----7-7-7-7--9-9-9--|
D||--7-7-7-7--9-9-9-9----7-7-7-7--9-9-9-9----7-7-7-7--9-9-9--|
A||--5-5-5-5--7-7-7-7----5-5-5-5--7-7-7-7----5-5-5-5--7-7-7--|
E||----------------------------------------------------------|

Chorus 3x (2:36)
e||-----------------------------|
B||-----------------------------|
G||-----------------------------|
D||--4-x-4-x-4-x-4--7-7-7--2-2-2|
A||--4-x-4-x-4-x-4--7-7-7--2-2-2|
E||--2-x-2-x-2-x-2--5-5-5--0-0-0|

then

e||-----------------------------|
B||-----------------------------|
G||-----------------------------|
D||--4-x-4-x-4-x-4--------------|
A||--4-x-4-x-4-x-4--5-----------|
E||--2-x-2-x-2-x-2----4-5-4-2-0-|


Ending (2:48)
e||-----------|
B||-----------|
G||-----------|
D||--4 \------|
A||--4 \------|
E||--2 \------|

NOTE:
During the bridge, the two riffs played on the top string come at (2:01) and (2:13).
Also, during the Verse Part 1, guitar 2 can play:
e||--------------------------------------------------------------|
B||--------------------------------------------------------------|
G||--------------------------------------------------------------|
D||------------------------------------4-x-4-x-4-x-4-------------|
A||----------------5-------------------4-x-4-x-4-x-4--5----------|
E||--2--5--0----2-----0-----2--5--0----2-x-2-x-2-x-2----4-5-4-2-0|

That's it!

It's a cool song Hope u enjoy playin it as much as i do

-!-!-!-!Guytano!-!-!-!-
Related for Greener Grass tab