Guitaretab - guitar tabs
Song name
# A B C D E F G H I J K L M N O P Q R S T U V W X Y Z

Millencolin - Material Boy tab

-------------------------------------------------------------------------------
			     Material Boy - Millencolin
-------------------------------------------------------------------------------

Tabbed by: Jolz

Email: Jolzton@hotmail.com

Tuning: Standard E A D G B E

This song was a bit annoying to tab coz' the lead guitar is very quiet in some parts.
But hopefully I got I got most of it.

Enjoy


Intro

Gtr 1
e|---------10--101010101010--------------------------------------------------|
B|---------10--101010101010--------------------------------------------------|
G|---------12b-121212121212--------------------------------------------------|
D|---------------------------X3----------------------------------------------|
A|---------------------------------------------------------------------------|
E|---------------------------------------------------------------------------|

Gtr 2
e|---------------------------------------------------------------------------|
B|---------------------------------------------------------------------------|
G|-777---7-7-7-7-7-7-7-7-7---------------------------------------------------|
D|-7775557-7-7-7-7-7-7-7-7---------------------------------------------------|
A|-5555555-5-5-5-5-5-5-5-5---X3----------------------------------------------|
E|----333--------------------------------------------------------------------|


Gtr 1
e|-13--131313131313-15--151515151515-10--1010-1010-1010-1010101010-----------|
B|-13--131313131313-15--151515151515-10--1010-1010-1010-1010101010-----------|
G|-15b-151515151515-17b-171717171717-12b-1212-1212-1212-1212121212-----------|
D|---------------------------------------------------------------------------|
A|---------------------------------------------------------------------------|
E|---------------------------------------------------------------------------|

Gtr 2
e|---------------------------------------------------------------------------|
B|---------------------------------------------------------------------------|
G|-----------------------------------7---7---7-7-7-7-7---7-7-7-7-7-----------|
D|-7---7---7-7-7-7--5---5---5-5-5-5--7---7---7-7-7-7-7---7-7-7-7-7-----------|
A|-7---7---7-7-7-7--5---5---5-5-5-5--5---5---5-5-5-5-5---5-5-5-5-5-----------|
E|-5---5---5-5-5-5--3---3---3-3-3-3------------------------------------------|

Verse 1

Gtr 1
e|-10------------------------------------------------------------------------|
B|-10------------------------------------------------------------------------|
G|---------------------------------------------------------------------------|
D|---------77777777----------------------------------------------------------|
A|---------55555555-7--7--7777-5--5--5555------------------------------------|
E|------------------5--5--5555-3--3--3333------------------------------------|

Gtr 2
e|---------------------------------------------------------------------------|
B|---------------------------------------------------------------------------|
G|---------------------------------------------------------------------------|
D|-777---7-77777777----------------------------------------------------------|
A|-5555555-55555555-7--7--7777-5--5--5555------------------------------------|
E|----333-----------5--5--5555-3--3--3333------------------------------------|

Gtr 1
e|---------------------------------------------------------------------------|
B|---------------------------------------------------------------------------|
G|---------------------------------------------------------------------------|
D|-777---7-77777777----------------------------------------------------------|
A|-5555555-55555555-7--7--7777-5--5--5555------------------------------------|
E|----333-----------5--5--5555-3--3--3333------------------------------------|

Gtr 2
e|---------------------------------------------------------------------------|
B|---------------------------------------------------------------------------|
G|---------------------------------------------------------------------------|
D|-777---7-77777777----------------------------------------------------------|
A|-5555555-55555555-7--7--7777-5--5--5555------------------------------------|
E|----333-----------5--5--5555-3--3--3333------------------------------------|

Pre-Chorus 1

Gtr 1
e|-10--10--10101010-10--10--10101010-----------------------------------------|
B|-10--10--10101010-10--10--10101010-----------------------------------------|
G|-7---7---7-7-7-7--7---7---7-7-7-7------------------------------------------|
D|---------------------------------------------------------------------------|
A|---------------------------------------------------------------------------|
E|---------------------------------------------------------------------------|

Gtr 2
e|---------------------------------------------------------------------------|
B|---------------------------------------------------------------------------|
G|-7---7---7-7-7-7--7---7---7-7-7-7------------------------------------------|
D|-7---7---7-7-7-7--7---7---7-7-7-7------------------------------------------|
A|-5---5---5-5-5-5--5---5---5-5-5-5------------------------------------------|
E|---------------------------------------------------------------------------|


Gtr 1
e|-10------------------------------------------------------------------------|
B|-10------------------------------------------------------------------------|
G|-7-------------------14--14--14141414-12--12--12121212---------------------|
D|---------------------------------------------------------------------------|
A|---------------------12--12--12121212-10--10--10101010---------------------|
E|-----------------12\------------------------------------X2-----------------|

Gtr 2
e|---------------------------------------------------------------------------|
B|---------------------------------------------------------------------------|
G|-7-------------------------------------------------------------------------|
D|-7-------------------7---7---7-7-7-7--5---5---5-5-5-5----------------------|
A|-5-------------------7---7---7-7-7-7--5---5---5-5-5-5----------------------|
E|-----------------12\-5---5---5-5-5-5--3---3---3-3-3-3---X2-----------------|


Chorus

Gtr 1
e|-------------------------------------10~~~---------------------------------|
B|-12~~~-------------8~~~--------------------------------10~~~---------------|
G|-------------------------------------7~~~----------------------------------|
D|-9~~~--------------5~~~--------------------------------7~~~----------------|
A|---------------------------------------------------------------------------|
E|-----------------------------------------------------------------------X2--|

Gtr 2
e|---------------------------------------------------------------------------|
B|---------------------------------------------------------------------------|
G|-------------------------------------77777777-77777777---------------------|
D|-99999999-99999999-55555555-55555555-77777777-77777777-77777777-77777777---|
A|-99999999-99999999-55555555-55555555-55555555-55555555-77777777-77777777---|
E|-77777777-77777777-33333333-33333333-------------------55555555-55555555-X2|

Bridge

Gtr 1
e|---------10--101010101010------12------------------------------------------|
B|---------10--101010101010------12------------------------------------------|
G|---------12b-121212121212------10b-----------------------------------------|
D|---------------------------------------------------------------------------|
A|---------------------------------------------------------------------------|
E|---------------------------------------------------------------------------|

Gtr 2
e|---------------------------------------------------------------------------|
B|---------------------------------------------------------------------------|
G|-777---7-7-7-7-7-7-7-7-7--777---7------------------------------------------|
D|-7775557-7-7-7-7-7-7-7-7--7775557------------------------------------------|
A|-5555555-5-5-5-5-5-5-5-5--5555555------------------------------------------|
E|----333----------------------333-------------------------------------------|

Verse 2

Gtr 1
e|---------------------------------------------------------------------------|
B|---------------------------------------------------------------------------|
G|---------------------------------------------------------------------------|
D|-777---7-77777777----------------------------------------------------------|
A|-5555555-55555555-7--7--7777-5--5--5555------------------------------------|
E|----333-----------5--5--5555-3--3--3333--X2--------------------------------|

Gtr 2
e|---------------------------------------------------------------------------|
B|---------------------------------------------------------------------------|
G|---------------------------------------------------------------------------|
D|-777---7-77777777----------------------------------------------------------|
A|-5555555-55555555-7--7--7777-5--5--5555------------------------------------|
E|----333-----------5--5--5555-3--3--3333--X2--------------------------------|

Pre-Chorus 2

Gtr 1
e|---------1010101010101010--------------------------------------------------|
B|---------1010101010101010--------------------------------------------------|
G|-777---7-7-7-7-7-7-7-7-7---------------------------------------------------|
D|-7775557-------------------------------------------------------------------|
A|-5555555------------------777-5--5--5555-----------------------------------|
E|----333-------------------555-3--3--3333X2--------------------------------|

Gtr 2
e|---------------------------------------------------------------------------|
B|---------------------------------------------------------------------------|
G|-777---7-7-7-7-7-7-7-7-7---------------------------------------------------|
D|-7775557-7-7-7-7-7-7-7-7---------------------------------------------------|
A|-5555555-5-5-5-5-5-5-5-5--777-5--5--5555-----------------------------------|
E|----333-------------------555-3--3--3333X2--------------------------------|


Gtr 1
e|-10--10--10101010-10--10--10101010-----------------------------------------|
B|-10--10--10101010-10--10--10101010-----------------------------------------|
G|-7---7---7-7-7-7--7---7---7-7-7-7------------------------------------------|
D|---------------------------------------------------------------------------|
A|---------------------------------------------------------------------------|
E|---------------------------------------------------------------------------|

Gtr 2
e|---------------------------------------------------------------------------|
B|---------------------------------------------------------------------------|
G|-7---7---7-7-7-7--7---7---7-7-7-7------------------------------------------|
D|-7---7---7-7-7-7--7---7---7-7-7-7------------------------------------------|
A|-5---5---5-5-5-5--5---5---5-5-5-5------------------------------------------|
E|---------------------------------------------------------------------------|

Chorus
[ Tab from: http://www.guitaretab.com/m/millencolin/56502.html ]
Gtr 1
e|-------------------------------------10~~~---------------------------------|
B|-12~~~-------------8~~~--------------------------------10~~~---------------|
G|-------------------------------------7~~~----------------------------------|
D|-9~~~--------------5~~~--------------------------------7~~~----------------|
A|---------------------------------------------------------------------------|
E|-----------------------------------------------------------------------X2--|

Gtr 2
e|---------------------------------------------------------------------------|
B|---------------------------------------------------------------------------|
G|-------------------------------------77777777-77777777---------------------|
D|-99999999-99999999-55555555-55555555-77777777-77777777-77777777-77777777---|
A|-99999999-99999999-55555555-55555555-55555555-55555555-77777777-77777777---|
E|-77777777-77777777-33333333-33333333-------------------55555555-55555555-X2|

Guitar solo

Gtr 1
e|---------------------------------------------------------------------------|
B|-7---7-------------7-7--7----------------------12-----------------12-------|
G|-9b--9b-97---------9b9b-9b-97--------1414141114--1411--1414141114---|1411--|
D|-----------9------------------9--------------------------------------------|
A|---------------------------------------------------------------------------|
E|---------------------------------------------------------------------------|

Gtr 2
e|---------------------------------------------------------------------------|
B|---------------------------------------------------------------------------|
G|-------------------------------------77777777-77777777---------------------|
D|-99999999-99999999-55555555-55555555-77777777-77777777-77777777-77777777---|
A|-99999999-99999999-55555555-55555555-55555555-55555555-77777777-77777777---|
E|-77777777-77777777-33333333-33333333-------------------55555555-55555555---|


Gtr 1
e|---------------------------------------------------------------------------|
B|-15--14--12~~~~----15--14--12~~~~--------------12-------------12--14-------|
G|-------------------------------------1414141114--1412-14141412-------------|
D|---------------------------------------------------------------------------|
A|---------------------------------------------------------------------------|
E|---------------------------------------------------------------------------|

Gtr 2
e|---------------------------------------------------------------------------|
B|---------------------------------------------------------------------------|
G|-------------------------------------77777777-77777777---------------------|
D|-99999999-99999999-55555555-55555555-77777777-77777777-77777777-77777777---|
A|-99999999-99999999-55555555-55555555-55555555-55555555-77777777-77777777---|
E|-77777777-77777777-33333333-33333333-------------------55555555-55555555---|

Gtr 1
e|---------------------------------------------------------------------------|
B|-15~~~~--------------------------------------------------------------------|
G|---------------------------------------------------------------------------|
D|---------------------------------------------------------------------------|
A|---------------------------------------------------------------------------|
E|---------------------------------------------------------------------------|

Gtr 2
e|---------------------------------------------------------------------------|
B|---------------------------------------------------------------------------|
G|---------------------------------------------------------------------------|
D|-5~~~~---------------------------------------------------------------------|
A|-5~~~~---------------------------------------------------------------------|
E|-3~~~~---------------------------------------------------------------------|

Interlude

Gtr 1
e|-7-777777-77777777--8--8-8-8-8-8-8-7-775-55--------------------------------|
B|-7-777777-77777777--8--8-8-8-8-8-8-7-775-55--------------------------------|
G|-9b999999-99999999-10b101010101010-9b997b77--------------------------------|
D|---------------------------------------------X2----------------------------|
A|---------------------------------------------------------------------------|
E|---------------------------------------------------------------------------|

Gtr 2
e|---------------------------------------------------------------------------|
B|---------------------------------------------------------------------------|
G|-----------------------------------7--7-777--------------------------------|
D|----9--------------5--5--5-5-5-----7--7-777--------------------------------|
A|-9999--------------5--5--5-5-5-----5--5-555--X2----------------------------|
E|-7777--------------3--3--3-3-3---------------------------------------------|


Gtr 1
e|-7-777777-77777777--8--8-8-8-8-8-8-7-775-55--------------------------------|
B|-7-777777-77777777--8--8-8-8-8-8-8-7-775-55--------------------------------|
G|-9b999999-99999999-10b101010101010-9b997b77--------------------------------|
D|---------------------------------------------------------------------------|
A|---------------------------------------------------------------------------|
E|---------------------------------------------------------------------------|

Gtr 2
e|---------------------------------------------------------------------------|
B|---------------------------------------------------------------------------|
G|-----------------------------------7--7-777--------------------------------|
D|----9--------9-----5--5--5-5-5-----7--7-777--------------------------------|
A|-9999-----9999-----5--5--5-5-5-----5--5-555--------------------------------|
E|-7777-----7777-----3--3--3-3-3---------------------------------------------|


Gtr 1
e|-7-777777-77777777--8--8-8-8-8-8-8-13-1313-15-1515-------------------------|
B|-7-777777-77777777--8--8-8-8-8-8-8-13-1313-15-1515-------------------------|
G|-9b999999-99999999-10b101010101010-15b1515-17b1717-------------------------|
D|---------------------------------------------------------------------------|
A|---------------------------------------------------------------------------|
E|---------------------------------------------------------------------------|

Gtr 2
e|---------------------------------------------------------------------------|
B|---------------------------------------------------------------------------|
G|---------------------------------------------------------------------------|
D|-99999999-99999999-5-5-5-5-5-5-5-5-7-7-7-7-7-7-7-7-------------------------|
A|-99999999-99999999-5-5-5-5-5-5-5-5-5-7-7-7-7-7-7-7-------------------------|
E|-77777777-77777777-3-3-3-3-3-3-3-3-5-5-5-5-5-5-5-5-------------------------|

Gtr 1
e|---------------------------------------------------------------------------|
B|----------------------------------------------10----10---------------------|
G|-9-------------------------------------------------------------------------|
D|----------------------------------------------7-----7----------------------|
A|-7-------------------------------------------------------------------------|
E|---------------------------------------------------------------------------|

Gtr 2
e|---------------------------------------------------------------------------|
B|---------------------------------------------------------------------------|
G|---------------------------------------------------------------------------|
D|-2--------------------------------------------7-----7----------------------|
A|-2--------------------------------------------7-----7----------------------|
E|-0--------------------------------------------5-----5----------------------|

Chorus

Gtr 1
e|-------------------------------------10~~~---------------------------------|
B|-12~~~-------------8~~~--------------------------------10~~~---------------|
G|-------------------------------------7~~~----------------------------------|
D|-9~~~--------------5~~~--------------------------------7~~~----------------|
A|---------------------------------------------------------------------------|
E|-----------------------------------------------------------------------X2--|

Gtr 2
e|---------------------------------------------------------------------------|
B|---------------------------------------------------------------------------|
G|-------------------------------------77777777-77777777---------------------|
D|-99999999-99999999-55555555-55555555-77777777-77777777-77777777-77777777---|
A|-99999999-99999999-55555555-55555555-55555555-55555555-77777777-77777777---|
E|-77777777-77777777-33333333-33333333-------------------55555555-55555555-X2|


Outro

Gtr 1
e|---------------------------------------------------------------------------|
B|-7---7-------------7-7--7------------7---7--------12-----------------------|
G|-9b--9b-97---------9b9b-9b-97--------9b--9b-97---------14------------------|
D|-----------9------------------9----------------9---------------------------|
A|---------------------------------------------------------------------------|
E|---------------------------------------------------------------------------|

Gtr 2
e|---------------------------------------------------------------------------|
B|---------------------------------------------------------------------------|
G|-------------------------------------77777777-77777777---------------------|
D|-99999999-99999999-55555555-55555555-77777777-77777777-77777777-77777777---|
A|-99999999-99999999-55555555-55555555-55555555-55555555-77777777-77777777---|
E|-77777777-77777777-33333333-33333333-------------------55555555-55555555---|


Gtr 1
e|---------------------------------------------------------------------------|
B|-7---7-------------7-7--7----------------------12------12-------14---------|
G|-9b--9b-97---------9b9b-9b-97--------1414141114--1411----------------------|
D|-----------9------------------9--------------------------------------------|
A|---------------------------------------------------------------------------|
E|---------------------------------------------------------------------------|

Gtr 2
e|---------------------------------------------------------------------------|
B|---------------------------------------------------------------------------|
G|-------------------------------------77777777-77777777---------------------|
D|-99999999-99999999-55555555-55555555-77777777-77777777-77777777-77777777---|
A|-99999999-99999999-55555555-55555555-55555555-55555555-77777777-77777777---|
E|-77777777-77777777-33333333-33333333-------------------55555555-55555555---|

Gtr 1
e|---------------------------------------------------------------------------|
B|-15~~~~--------------------------------------------------------------------|
G|---------------------------------------------------------------------------|
D|---------------------------------------------------------------------------|
A|---------------------------------------------------------------------------|
E|---------------------------------------------------------------------------|

Gtr 2
e|---------------------------------------------------------------------------|
B|---------------------------------------------------------------------------|
G|---------------------------------------------------------------------------|
D|-5~~~~~--------------------------------------------------------------------|
A|-5~~~~~--------------------------------------------------------------------|
E|-3~~~~~--------------------------------------------------------------------|

| /  slide up
| \  slide down
| h  hammer-on
| p  pull-off
| ~  vibrato
| +  harmonic
| x  Mute note
===============================================================================
Related for Material Boy tab