Song name
# A B C D E F G H I J K L M N O P Q R S T U V W X Y Z

Millencolin - Shut You Out tab

Help us improve GuitareTab! Take a short survey!
Band:Millencolin
Song:Shut you out
Year:2005
Album:Kingwood

Intro riff:
|---------------------------------------------------------------|
|---------------------------------------------------------------|
|-0--0--0--0--0--0--0--0--0--0--0--0--0--0--0--0--0--0--0--0----|
|---7--7--7--7--7--7--7--7--7--7--7--7--7--7--7--7--7--7--7--7--|
|--7--7--7--7--7--7--7--7--7--7--7--7--7--7--7--7--7--7--7--7---|
|---------------------------------------------------------------|

Guitar 1 repeats above riff throughout whole intro......while 
Guitar 2 plays this:

|--8--8--8--8--8--8--8--8-7-7-7-7-7-7-7-7-5-5-5-5-5-5-5-5-5-5-5-5-5-5-5-5-|
|-10-10-10-10-10-10-10-10-9-9-9-9-9-9-9-9-7-7-7-7-7-7-7-7-7-7-7-7-7-7-7-7-|
|-10-10-10-10-10-10-10-10-9-9-9-9-9-9-9-9-7-7-7-7-7-7-7-7-7-7-7-7-7-7-7-7-|
|-------------------------------------------------------------------------|
|-------------------------------------------------------------------------|
|-------------------------------------------------------------------------|
Related for Shut You Out tab