Song name
# A B C D E F G H I J K L M N O P Q R S T U V W X Y Z

Millencolin - Moosemans Jukebox tab

----------------------------------------------------------------------------
			     MOOSEMAN'S JUKEBOX - Millencolin
----------------------------------------------------------------------------
Tabbed by:TheMeese_2
Email:sum_41_freak_8@hotmail.com

Tuning:Standard

Note:This is how to play the song with one guitar.

Intro/Chorus
e|-----------------------------------------------------------------------|
B|-----------------------------------------------------------------------|
G|-----------8-9-11-999999-11-8-8-(666666666666-13-13-13)6-4-6-4-6-8-6-4-|
D|---4/66666-------------------------------------------------------------|
A|---4/66666-6-7-9--777777-9--6-6-(444444444444-11-11-11)4-2-4-2-4-6-4-2-|
E|---2/44444-------------------------------------------------------------|x2
(End on part in brackets the second time and skip it the first time)

Verse 1
e|-------------------------------------------------------------------------|
B|-------------------------------------------------------------------------|
G|---(13-13)---(13-13)-----------------------------------------------------|
D|----------------------444444444444-xx------------------------------------|
A|---(11-11)---(11-11)--444444444444-xx------------------------------------|
E|----------------------222222222222-xx------------------------------------|
(Both above parts in brackets played after vocal/bass breaks)

Intro/Chorus
e|-----------------------------------------------------------------------|
B|-----------------------------------------------------------------------|
G|-----------8-9-11-999999-11-8-8-(666666666666-13-13-13)6-4-6-4-6-8-6-4-|
D|---4/66666-------------------------------------------------------------|
A|---4/66666-6-7-9--777777-9--6-6-(444444444444-11-11-11)4-2-4-2-4-6-4-2-|
E|---2/44444-------------------------------------------------------------|x2
(End on part in brackets the second time and skip it the first time)

Verse 2 (Pt. 1)
e|-----------------------------------------------------------------------|
B|-----------------------------------------------------------------------|
G|-----------------------------------------------------------------------|
D|---13131313-131313-9999-999-4444-444-11111111-111111-------------------|
A|---11111111-111111-7777-777-2222-222-9-9-9-9--9-9-9--------------------|
E|-----------------------------------------------------------------------|x2

Verse 2 (Pt. 2)
e|-----------------------------------------------------------------------|
B|-----------------------------------------------------------------------|
G|---10101010-101010-13131313-131313-11111111-111111-6666-666------------|
D|-----------------------------------------------------------------------|
A|---8-8-8-8--8-8-8--11111111-111111-9-9-9-9--9-9-9--4444-444------------|
E|-----------------------------------------------------------------------|x2
(Leave out pause between last chords on second time through)

Intro/Chorus
e|-----------------------------------------------------------------------|
B|-----------------------------------------------------------------------|
G|-----------8-9-11-999999-11-8-8-(666666666666-13-13-13)6-4-6-4-6-8-6-4-|
D|---4/66666-------------------------------------------------------------|
A|---4/66666-6-7-9--777777-9--6-6-(444444444444-11-11-11)4-2-4-2-4-6-4-2-|
E|---2/44444-------------------------------------------------------------|x2
(End on part in brackets the second time and skip it the first time)

Breakdown
e|-------------------------------------------------------------------------|
B|-------------------------------------------------------------------------|
G|-66666666-99999999-------------66666666-99999999-------------------------|
D|-66666666-99999999-9999-6666---66666666-99999999-6-666666666666----------|
A|-44444444-77777777-9999-6666---44444444-77777777-6-666666666666----------|
E|-------------------7777-4444---------------------4-444444444444----------|

Outro (Pt.1)
e|-----------------------------------------------------------------------|
B|-----------------------------------------------------------------------|
G|-----------8-9-11-999999-11-8-8-6-4-6-4-6-8-6-4------------------------|
D|---4/66666-------------------------------------------------------------|
A|---4/66666-6-7-9--777777-9--6-6-4-2-4-2-4-6-4-2------------------------|
E|---2/44444-------------------------------------------------------------|x3

Outro (Pt.2)
e|-------------------------------------------------------------------------|
B|-------------------------------------------------------------------------|
G|-----------8-9-11-999999-11-8-8------------------------------------------|
D|---4/66666--------------------------------------6666666666666-6/8--------|
A|---4/66666-6-7-9--777777-9--6-6-4-2-4-2-4-6-4-2-6666666666666-6/8--------|
E|---2/44444--------------------------------------4444444444444-4/6--------|

| /  slide up
| \  slide down
| h  hammer-on
| p  pull-off
| ~  vibrato
| +  harmonic
| x  Mute note
============================================================================
Tap to rate this tab
 
# A B C D E F G H I J K L M N O P Q R S T U V W X Y Z