Guitaretab - guitar tabs
Song name
# A B C D E F G H I J K L M N O P Q R S T U V W X Y Z

Millencolin - Softworld tab

Tabbed by - Tridout


Guitar 1 (Palm muted)
E--------------------------------------|
B--------------------------------------|
G--------------------------------------|
D-----------2-3-2-0-0-0-2-3-2-0-2------|
A--3-3-3-3-3---------------------------|
E--------------------------------------|

E--------------------------------------|
B--------------------------------------|
G--------------------------------------|
D-----------2-3-2-5-5-5-3-3-3-2-2------|
A--3-3-3-3-3---------------------------|
E--------------------------------------|

("One step forward two steps back, we're the masters of disaster..")
Guitar 2 (Palm muted)
E---------------------------------------------------|
B---------------------------------------------------|
G-5-5-5-5-5-5-5-5-7-7-7-7-7-7-7---------------------|
D-5-5-5-5-5-5-5-5-7-7-7-7-7-7-7-7-7-7-7-7-7---------|
A-3-3-3-3-3-3-3-3-5-5-5-5-5-5-5-8-8-8-8-8-8---------|
E---------------------------------------------------| Repeat
Guitar 1 (over guitar two's chords)
E--------------------------------------|
B--------------------------------------|
G--------------------------------------|
D-----------2-3-2-0-0-0-2-3-2-0-2------|
A--3-3-3-3-3---------------------------|
E--------------------------------------|

E--------------------------------------|
B--------------------------------------|
G--------------------------------------|
D--------5-5-5-3-3-5-5-5-3-3-3-2-2-----|
A--3-3-3-------------------------------|
E--------------------------------------|

Chorus

("in a softworld..")

Guitar's one and two
(rapid palm muting) then Guitar one:           Guitar two:
E--------------------- E------------------- E----------------|
B--------------------- B------------------- B----------------|
G-5-7-10-------------- G------------------- G----------------|
D-5-7-10-------------- D------------------- D--7-5-----------|
A-3-5-8--------------- A--8-7-5------------ A------8---------|
E--------------------- E------------------- E----------------| repeat
[ Tab from: http://www.guitaretab.com/m/millencolin/93227.html ]
("Next stop is looking good, 'cos you dont know what it offers..")
Guitar 2 (Palm muted)
E---------------------------------------------------|
B---------------------------------------------------|
G-5-5-5-5-5-5-5-5-7-7-7-7-7-7-7---------------------|
D-5-5-5-5-5-5-5-5-7-7-7-7-7-7-7-7-7-7-7-7-7---------|
A-3-3-3-3-3-3-3-3-5-5-5-5-5-5-5-8-8-8-8-8-8---------|
E---------------------------------------------------| Repeat
Guitar 1 (over guitar two's chords)
E--------------------------------------|
B--------------------------------------|
G--------------------------------------|
D-----------2-3-2-0-0-0-2-3-2-0-2------|
A--3-3-3-3-3---------------------------|
E--------------------------------------|

E--------------------------------------|
B--------------------------------------|
G--------------------------------------|
D--------5-5-5-3-3-5-5-5-3-3-3-2-2-----|
A--3-3-3-------------------------------|
E--------------------------------------|

Chorus ("in a softworld")

Bridge:
("Take time, to wonder if it's really worth it..")
Guitar one:
E-------------------------------------|
B-------------------------------------|
G-7--------5-------7------------------|
D-7--------5-------7-------7-10-9-5-7-|
A-5--8-7-5-3-8-7-5-5--8-7-5-----------|
E-------------------------------------|

Guitar two:
E--------------------------------------|
B--------------------------------------|
G-7-------5-------7----------------10--|
D-7-7-5---5-7-5---7-7-5---7-10-9-5-10--|
A-5-----8-3-----8-5-----8----------8---|
E--------------------------------------|

Chorus ("in a softworld")

("But dont ask me now, what its all about")
Guitar 1
E------------------------|
B------------------------|
G------------------------|
D--0-2---0-2--0-2-3-2-0--|
A-2----2-----2-----------|
E------------------------| repeat

Guitar 2
E------------------------|
B------------------------|
G-5-7-10-----------------|
D-5-7-10-----------------|
A-3-5-8------------------|
E------------------------|repeat, then

(listen for correct phrasing)
E-----8-8-----8-8--------|
B-----8-8-----8-8--------|
G--10^----10^------------|
D------------------------|
A------------------------|
E------------------------|Repeat till end

Guitar 1 (outro solo)
E-------------------|
B-----8-8-6-5--8----|
G-5-5---------5-5-7-|
D-------------------|
A-------------------|
E-------------------| Repeat till end

Enjoy!
Related for Softworld tab
Advertisement will be closed in 10 seconds