Song name
# A B C D E F G H I J K L M N O P Q R S T U V W X Y Z

Millencolin - Simple Twist Of Hate tab

Help us improve GuitareTab! Take a short survey!
-------------------------------------------------------------------------------
			     Simple Twist Of Hate - Band Name
-------------------------------------------------------------------------------
Tabbed by: identityxcrysis
Email: xrunawayboyx@hotmail.com

Tuning: Standard

Intro

e|-55-5---55-5--|
B|-66-6---55-5--|
G|-77-7---77-7--|
D|-77-7---77-7--|   Repeat
A|-55-5---55-5--|
E|--------------|

e|--------------------------|
B|--------------------------|
G|-77-7-55-5-33-3-22-2------|
D|-77-7-55-5-33-3-22-2------|
A|-55-5-33-3-11-1-00-0------|
E|--------------------------|



Verse half of verse

e|-5~--5--------5~---|
B|-6~----6---6--6~---|
G|-7~------7----7~---|
D|-7~-----------7~---|
A|-5~-----------5~---|
E|-------------------|

Second half of verse

e|--------------------------|
B|--------------------------|
G|-77-7-55-5-33-3-22-2------|
D|-77-7-55-5-33-3-22-2------|
A|-55-5-33-3-11-1-00-0------|
E|--------------------------|

e|--------------------------|
B|--------------------------|
G|-77-7-55-5-33-3-----------|
D|----------------77-7------|
A|-55-5-33-3-11-1-00-0------|
E|--------------------------|

Bridge

e|---------------------------------------|
B|---------------------------------------|
G|---------------------------------------|
D|-55555555555555-7-88888888888888-10----|
A|-55555555555555-7-88888888888888-10----|
E|-33333333333333-5-66666666666666-8-----|


e|-----------------------------------------------|
B|-----------------------------------------------|
G|-----------------------------------------------|
D|-55555555555555-7-88888888-1010101010101010----|
A|-55555555555555-7-88888888-1010101010101010----|
E|-33333333333333-5-66666666-8-8-8-8-8-8-8-8-----|

At the very end just strum this a lot

e|-5-----------|
B|-6-----------|
G|-7-----------|
D|-7-----------|
A|-5-----------|
E|-------------|



| ~  let ring
| /  slide up
| \  slide down
| h  hammer-on
| p  pull-off
| ~  vibrato
| +  harmonic
| x  Mute note
===============================================================================
Related for Simple Twist Of Hate tab