Song name
# A B C D E F G H I J K L M N O P Q R S T U V W X Y Z

Miller Steve - Rockin Me Baby tab

Steve Miller
Rockin Me Baby

e-\---7---7---7---7777777---7-----------------------------------
b-\---7---9---7---9999999---7-----------------------------------
g-\---8---9---8---9999999---8-----------------------------------
d-\---9---9---9---9999999---9-----------------------------------
a-\---9---7---9---7777777---9-----------------------------------
e-\---7---7---7---7777777---7-----------------------------------
      B   E   B   EEEEEEE   B



palm mute
e-\-------------------------------------------------------------
b-\-------------------------------------------------------------
g-\-----------9-------------------------------------------------
d-\---9---7---9---9---------------------------------------------
a-\---9---7---7---9---------------------------------------------
e-\---7---5-------7---------------------------------------------
      B   A   E   B

listen to song for rhythm and changes
Tap to rate this tab
# A B C D E F G H I J K L M N O P Q R S T U V W X Y Z