Song name
# A B C D E F G H I J K L M N O P Q R S T U V W X Y Z

Million Dead - Relentless tab

-------------------------------------------------------------------------------
			     Relentless - Million Dead
-------------------------------------------------------------------------------
Tabbed by:Mike
Email:

Tuning:STANDARD (Normal)
Best plyed on a dirty input, with a little drive, dosn't sound as it should
when played clean. The song pretty much repeats itself throughout. But its
a great song from one of the best English bands around today =MillionDead=

repeats throuhout song there are over parts but this is the intro, its all
you need.

e|--------------------------------------------------------------------------|
B|----0-0---0----0-0----0--4 0000000----------------------------------------|
G|----0-0---4----0-0----5p/4 4444444-----x10--------------------------------|
D|----4-4---4----4-4----4--0 5555555----------------------------------------|
A|--------------------------------------------------------------------------|
E|--------------------------------------------------------------------------|

e|--------------------------------------------------------------------------|
B|--------------5-----------------------------------------------------------|
G|-------4----------4--5----------------------------------------------------|
D|----4-----4---------------------------------------------------------------|
A|--------------------------------------------------------------------------|
E|--------------------------------------------------------------------------|


Please elaborate on this version, i'm sure you can finish it off!?

| /  slide up
| \  slide down
| h  hammer-on
| p  pull-off
| ~  vibrato
| +  harmonic
| x  Mute note
===============================================================================
Tap to rate this tab
# A B C D E F G H I J K L M N O P Q R S T U V W X Y Z