Guitaretab - guitar tabs
Song name
# A B C D E F G H I J K L M N O P Q R S T U V W X Y Z

Million Dead - Pornography For Cowards tab


(standard tuning)

3D -8-8-8-7-7-7-8-8-8-8-8-8-8-8-|
2A -8-8-8-7-7-5-6-6-6-6-6-6-6-6-|
1E -6-6-6-5-5-5-6-6-6-6-6-6-6-6-|

verse riff:

3D -7-7-7-7-7-7-2-2-2-2-2-2-4-4-4-4-4-4-4-7-7-7-7-7-7-7-|
2A -8-8-8-7-7-7-4-4-4-3-3-3-5-5-5-5-5-5-5-9-9-9-9-9-9-9-|
1E -6-6-6-5-5-5-2-2-2-1-1-1-3-3-3-3-3-3-3-7-7-7-7-7-7-7-|

end of verse:

3D -8-8-8-7-7-7-|
2A -8-8-8-7-7-7-|
1E -6-6-6-5-5-5-|

chorus riff:

6E -------------6-6-6-6-6-6-5-5-5-5-5-5-0-0-0-0-0-0---10-8----------|
5B -8-8-8-8-8-8-8-8-8-8-8-8-8-8-8-8-8-8-6-6-6-6-6-6-8------10-10-10-|
4G -0-0-0-0-0-0-0-0-0-0-0-0-0-0-0-0-0-0-7-7-7-7-7-7-0---------------|
3D -------------------------------------0-0-0-0-0-0-----------------|

end of chorus:
[ Tab from: ]
6E -------------6-6-6-6-6-6-5-5-5-5-5-5-0-0-0-0-0-0-|
5B -8-8-8-8-8-8-8-8-8-8-8-8-8-8-8-8-8-8-6-6-6-6-6-6-|
4G -0-0-0-0-0-0-0-0-0-0-0-0-0-0-0-0-0-0-7-7-7-7-7-7-|
3D -------------------------------------0-0-0-0-0-0-|


4G -/-9-9-9-9-9-9-9-9-9-9-9-9-9-9-9-|
3D -/-9-9-9-9-9-9-9-9-9-9-9-9-9-9-9-|
2A -/-7-7-7-7-7-7-7-7-7-7-7-7-7-7-7-|
1E ---0-0-0-0-0-0-0-0-0-0-0-0-0-0-0-|

end riff:

6E -6-6-6-6-6-6-0-0-0-0-0-0-10-10-10-10-10-10-8--8--8--8--8--8--|
5B -8-8-8-8-8-8-6-6-6-6-6-6-8--8--8--8--8--8--10-10-10-10-10-10-|
4G -0-0-0-0-0-0-7-7-7-7-7-7-0--0--0--0--0--0--0--0--0--0--0--0--|
3D -------------0-0-0-0-0-0-------------------0--0--0--0--0--0--|

song structure:

intro riff x2
intro riff 2 x4
verse riff x2
end of verse
chorus riff x3
end of chorus
intro riff 2 x4
drop out (bass plays intro riff twice)
verse riff x2
bridge x4
end riff followed by bridge x3
end riff
bridge x4
Related for Pornography For Cowards tab