Guitaretab - guitar tabs
Song name
# A B C D E F G H I J K L M N O P Q R S T U V W X Y Z

Million Dead - A Song To Ruin tab


(standard tuning)

verse riff:

5B -------8-----  }
4G -----9---9---  } play this riff
3D ---7-------7-  } 16 times through
2A -0-----------  }

6E -0-0-0-0-0--0-0-0-0-0-|
5B -0-0-0-0-0--0-0-0-0-0-|
4G -9-9-9-9-9--9-9-9-9-9-|
3D -9-9-9-9-9--0-0-0-0-0-|
2A -0-0-0-0-0--9-9-9-9-9-|

chorus riff:
[ Tab from: ]
6E -0-0-0-0-0-0--0-0-0-0-0--0--0--0--0--0--0---0--0--0--0--0---0--0--0--0--0--|
5B -0-0-0-0-0-0--0-0-0-0-0--0--0--0--0--0--0---0--0--0--0--0---0--0--0--0--0--|
4G -9-9-9-9-9-9--9-9-9-9-9--12-12-12-12-12-12--11-11-11-11-11--11-11-11-11-11-|
3D -9-9-9-9-9-9--0-0-0-0-0--0--0--0--0--0--0---0--0--0--0--0---0--0--0--0--0--|
2A -0-0-0-0-0-0--9-9-9-9-9--12-12-12-12-12-12--9--9--9--9--9---9--9--9--9--9--|
1E -------------------------0--0--0--0--0--0---0--0--0--0--0---0--0--0--0--0--|

song structure:

verse riff (16 plucks followed by chords) x7 (leave off chords from last one)
chorus riff x4, repeat last chord twice more on last time
guitar noise
back to verse plucking until end
Related for A Song To Ruin tab