Song name
# A B C D E F G H I J K L M N O P Q R S T U V W X Y Z

Million Dead - After The Rush Hour tab

-------------------------------------------------------------------------------
			AFTER THE RUSH HOUR - Million Dead
-------------------------------------------------------------------------------
Tabbed by: Headbaner89
Note: Originally, I didn't tab this song myself, but the site which provided the tab was shut down. I made some corrections though.

Tuning: Normal

Intro + Verse 1 (x8):
e|--------------------------------------------------------|
B|--------------------------------------------------------|
G|-14/12-12-12-12-12-14-14-14-14-14-9-9-9-9-9-6-6-6-2/4\2-|
D|-14/12-12-12-12-12-12-12-12-12-12-7-7-7-7-7-4-4-4-2/4\2-|
A|--------------------------------------------------------|
E|--------------------------------------------------------|

Chorus (x2):
e|-----------------------------------------|
B|-----------------------------------------|
G|-----------------------------------------|
D|-----------------------------------------|
A|-7h00-0-0-12-121212-12-12h00-0-0-4-444-4-|
E|-7h00-0-0-12-121212-12-12h00-0-0-4-444-4-|

Verse 2 (x4):
e|--------------------------------------------------------|
B|--------------------------------------------------------|
G|-14/12-12-12-12-12-14-14-14-14-14-9-9-9-9-9-6-6-6-2/4\2-|
D|-14/12-12-12-12-12-12-12-12-12-12-7-7-7-7-7-4-4-4-2/4\2-|
A|--------------------------------------------------------|
E|--------------------------------------------------------|

Chorus (x2):
e|-----------------------------------------|
B|-----------------------------------------|
G|-----------------------------------------|
D|-----------------------------------------|
A|-7h00-0-0-12-121212-12-12h00-0-0-4-444-4-|
E|-7h00-0-0-12-121212-12-12h00-0-0-4-444-4-|

Bridge to interlude (x1):
e|---------------------------------------------------------------------------|
B|---------------------------------------------------------------------------|
G|---------------------------------------------------------------------------|
D|-22222222222222-00000000000000-1010101010101010101010101010-99999999999999-|
A|-22222222222222-00000000000000-1010101010101010101010101010-99999999999999-|
E|-22222222222222-00000000000000-1010101010101010101010101010-99999999999999-|

Interlude (x1):
e|---------------------------------------------------------------------------------------------------------------------------------|
B|-----10-------10-----10-------10-----10-------10-----10-------10-----10-------10-----10-------10-----10-------10-----10-------10-|
G|---7----7---7------7----7---7------7----7---7------7----7---7------7----7---7------7----7---7------7----7---7------7----7---7----|
D|-9--------9------9--------9------8--------8------8--------8------7--------7------7--------7------6--------6------6--------6------| 
A|---------------------------------------------------------------------------------------------------------------------------------|
E|---------------------------------------------------------------------------------------------------------------------------------|

e|--------------------------------------------------------------------------------|
B|-----10-----10-------10-----10-------9-----9-------9-----9-------8-----8--------|
G|---7------7----7---7------7----7---7-----7---7---7-----7---7---7-----7---7------| 
D|-9------9--------9------9--------8-----8-------8-----8-------7-----7------------|     
A|--------------------------------------------------------------------------------|
E|--------------------------------------------------------------------------------|

Play the Interlude twice and end with:
e|----------------|
B|-88888888888888-|
G|-77777777777777-|
D|-77777777777777-|
A|-77777777777777-|
E|----------------|

Chorus (x2):
e|-----------------------------------------|
B|-----------------------------------------|
G|-----------------------------------------|
D|-----------------------------------------|
A|-7h00-0-0-12-121212-12-12h00-0-0-4-444-4-|
E|-7h00-0-0-12-121212-12-12h00-0-0-4-444-4-|

Bridge to Interlude 2 (x2):
e|---------------------------------------------------------------------------|
B|---------------------------------------------------------------------------|
G|---------------------------------------------------------------------------|
D|-22222222222222-00000000000000-1010101010101010101010101010-99999999999999-|   
A|-22222222222222-00000000000000-1010101010101010101010101010-99999999999999-|
E|-22222222222222-00000000000000-1010101010101010101010101010-99999999999999-| 

Interlude 2 (x2):
e|--------------------------------------------------------|
B|--------------------------------------------------------|
G|-14/12-12-12-12-12-14-14-14-14-14-9-9-9-9-9-6-6-6-2/4\2-|
D|-14/12-12-12-12-12-12-12-12-12-12-7-7-7-7-7-4-4-4-2/4\2-|
A|--------------------------------------------------------|
E|--------------------------------------------------------|

Chorus (x2):
e|-----------------------------------------|
B|-----------------------------------------|
G|-----------------------------------------|
D|-----------------------------------------|
A|-7h00-0-0-12-121212-12-12h00-0-0-4-444-4-|
E|-7h00-0-0-12-121212-12-12h00-0-0-4-444-4-|

Ending (x1)
e|------------------------|
B|------------------------|
G|------------------------|
D|-22222222222222-0000003-|
A|-22222222222222-0000003-|
E|-22222222222222-0000003-|

| /  slide up
| \  slide down
| h  hammer-on
| p  pull-off
| ~  vibrato
| +  harmonic
| x  Mute note
===============================================================================
Tap to rate this tab
# A B C D E F G H I J K L M N O P Q R S T U V W X Y Z