Song name
# A B C D E F G H I J K L M N O P Q R S T U V W X Y Z

Million Dollar Reload - Livin In The City tab

Livin' In The City by Million $ Reload
from Anthems of a Degeneration


INTRO/VERSE                                x7
e-------------------------------------------|
B-------------------------------------------|
G-------------------------------------------|
D--5-7-7-7-5-7-7-7-5-7-5-7-7-7-5-7-7-7---2--|
A--------------------------------------3-0--|
E-------------------------------------------|


CHORUS                                 x2
e---------------------------------------|
B---------------------------------------|
G-----7-----7---------------------------|
D--7--7--7--7---------------------------|
A--7--5--7--5--5p0-3p0-0-0-5p0-3p0-0-0--|
E--5-----5------------------------------|


1:43
e----------------------|
B----------------------|
G------5~------7~------|
D--2~--5~--5~--7~--7~--|
A--2~--3~--5~--5~--7~--|
E--0~------3~------5~--|


OUTRO                      x7
e---------------------------|------------------------------|
B---------------------------|------------------------------|
G---------------------------|------------------------------|
D--5-7-7-7------------------|--5-7-7-7-7-7-7-7-7-7-7----2--|
A----------5p0-4p0-3p0-2p0--|-------------------------3-0--|
E---------------------------|------------------------------|

Any corrections please comment
Thanks

http://www.milliondollarreload.com/
Tap to rate this tab
# A B C D E F G H I J K L M N O P Q R S T U V W X Y Z