Song name
# A B C D E F G H I J K L M N O P Q R S T U V W X Y Z

Million Dollar Reload - Tattoos tab

Tattoos And Dirty Girls by Million $ Reload
from Anthems of a Degeneration

INTRO
e-----------------------------------------------------------|
B-----------------------------------------------------------|
G------7/9-9-9--7/9-9-9--7/9-9-9----------------------------|
D--2~--7/9-9-9--7/9-9-9--7/9-9-9--------5-6-7--5-7-9-7-5----|
A--2~--5/7-7-7--5/7-7-7--5/7-7-7--5-6-7------------------7--|
E--0~-------------------------------------------------------|

MAIN RIFF/CHORUS
e----------------------------|
B----------------------------|
G--9-8-7---------------------|
D--9-8-7--9-7-5-7-5-7-9-5-0--|
A--7-6-5--9-7-5-7-5-7-9-5-2--|
E---------7-5-3-5-3-5-7-3-0--|

VERSE
e-----------------|
B-----------------|
G----7-7-7/9------|
D--2-7-7-7/9-5-2--|
A--2-5-5-5/7-5-2--|
E--0---------3-0--|

OUTRO
e-----------------------------|
B-----------------------------|
G--9-8-7------------------9~--|
D--9-8-7--9-7-5-7-5-7-9-5-9~--|
A--7-6-5--9-7-5-7-5-7-9-5-7~--|
E---------7-5-3-5-3-5-7-3-----|

Any corrections please comment
Thanks

http://www.milliondollarreload.com/
Tap to rate this tab
# A B C D E F G H I J K L M N O P Q R S T U V W X Y Z