Song name
# A B C D E F G H I J K L M N O P Q R S T U V W X Y Z

Million Dollar Reload - Cold Hard Day tab

Cold Hard Day by Million $ Reload
from Anthems of a Degeneration


INTRO/MAIN RIFF                                                                     x3
e------------------------------------------------------------------------------------|
B------------------------------------------------------------------------------------|
G--------------------------------8-7-------------------------------8-7---------------|
D------------------5-7-7-7-7-7-7-8-7--7-7-7-7-7-7-5-5--7-7-7-7-7-7-8-7--7-7-7-7-7-7--|
A--5/7-5-4-0-4-5-4-5-7-7-7-7-7-7-6-5--7-7-7-7-7-7-5-5--7-7-7-7-7-7-6-5--7-7-7-7-7-7--|
E------------------3-5-5-5-5-5-5------5-5-5-5-5-5-3-3--5-5-5-5-5-5------5-5-5-5-5-5--|


BRIDGE
e-----------------------|
B-----------------------|
G-----------------------|
D----7------7------7----|
A------7------7------7--|
E--5------5------5------|


CHORUS
e------------------------------------------------------------------------|
B------------------------------------------------------------------------|
G------------------------------------------------------------------------|
D--1010101010101010--7-7-7-7-7-7-7-7--1010101010101010-------------------|
A--1010101010101010--7-7-7-7-7-7-7-7--1010101010101010--7-7-7-7-7-7-7-7--|
E--8-8-8-8-8-8-8-8---5-5-5-5-5-5-5-5--8-8-8-8-8-8-8-8---5-5-5-5-5-5-5-5--|

Any corrections please comment
Thanks

http://www.milliondollarreload.com/
Tap to rate this tab
# A B C D E F G H I J K L M N O P Q R S T U V W X Y Z