Song name
# A B C D E F G H I J K L M N O P Q R S T U V W X Y Z

Million Dollar Reload - Broken tab

-------------------------------------------------------------------------------
                             BROKEN  Million Dollar Reload
-------------------------------------------------------------------------------
Tuning:EADGBe

 Intro 
e|--3-----2-----1-----0-----1-----0-----3-----2-----1-----0-----1-----0-----|
B|--0-----3-----1-----1-----1-----1-----0-----3-----1-----1-----1-----1-----|
G|--0-----2-----2-----0-----2-----0-----0-----2-----2-----0-----2-----0-----|
D|--0-----0-----3-----2-----3-----2-----0-----0-----3-----2-----3-----2-----|
A|--2-----x-----3-----3-----3-----3-----2-----x-----3-----3-----3-----3-----|
E|--3-----x-----1-----3-----1-----3-----3-----x-----1-----3-----1-----3-----|

Vs 1
e|-3--------------2----------------------------3----------------------------|
B|-3--------------3----------------------------3----------------------------|
G|-0--------------2----------------------------0----------------------------|
D|-2--------------0----------------------------2----------------------------|
A|-2--------------x----------------------------3----------------------------|
E|-0--------------x----------------------------x----------------------------|
   Takes a breath to catch her swallow, shes on the edge

e|-3--------------2----------------------------3----------------------------|
B|-3--------------3----------------------------3----------------------------|
G|-0--------------2----------------------------0----------------------------|
D|-2--------------0----------------------------2----------------------------|
A|-2--------------x----------------------------3----------------------------|
E|-0--------------x----------------------------x----------------------------|
   Not  easy  to   lose her sorrow, locked in her head

e|-3----------------2---------------------------3---------------------------|
B|-3----------------3---------------------------3---------------------------|
G|-0----------------2---------------------------0---------------------------|
D|-2----------------0---------------------------2---------------------------|
A|-2----------------x---------------------------3---------------------------|
E|-0----------------x---------------------------x---------------------------|
   Been a while since shes had it all, friends have disappeared


e|-3----------------2----------------------------------3--------------------|
B|-3----------------3----------------------------------3--------------------|
G|-0----------------2----------------------------------0--------------------|
D|-2----------------0----------------------------------2--------------------|
A|-2----------------x----------------------------------3--------------------|
E|-0----------------x----------------------------------x--------------------|
    What can she do her backs against the wall, realised her fears

Chorus:
e|---------------3---------------2------------------------------------------|
B|---------------3---------------3------------------------------------------|
G|---------------0---------------2------------------------------------------|
D|---------------0---------------0------------------------------------------|
A|---------------2---------------x------------------------------------------|
E|---------------3---------------x------------------------------------------|
    When you gonna go, when you gonna turn it all around

e|-------------0-----------0-----------------0-----------0------------------|
B|-------------1-----------1-----------------1-----------1------------------|
G|-------------0h2---------0-----------------0h2---------0------------------|
D|-------------3-----------2-----------------3-----------2------------------|
A|-------------3-----------3-----------------3-----------3------------------|
E|-------------x-----------x-----------------x-----------x------------------|
   Are you gonna get a second try,  are you gonna keep living a lie

e|---------------3----------------2-----------------------------------------|
B|---------------3----------------3-----------------------------------------|
G|---------------0----------------2-----------------------------------------|
D|---------------0----------------0-----------------------------------------|
A|---------------2----------------x-----------------------------------------|
E|---------------3----------------x-----------------------------------------|               
    When you gonna go, when you gonna turn it all around

e|-------------0--------------0------------0-------------0--------------3---|
B|-------------1--------------1------------1-------------1--------------3---|
G|-------------0h2------------0------------0h2-----------0--------------0---|
D|-------------3--------------2------------3-------------2--------------0---|
A|-------------3--------------3------------3-------------3--------------2---|
E|-------------x--------------x------------x-------------x--------------3---|
    Never gonna stop the hands of time, just be thankful youre alive, just broken

Vs 2
e|-3------------2------------------------------3----------------------------|
B|-3------------3------------------------------3----------------------------|
G|-0------------2------------------------------0----------------------------|
D|-2------------0------------------------------2----------------------------|
A|-2------------x------------------------------3----------------------------|
E|-0------------x------------------------------x----------------------------|
   Sacrificed the one thing she loved, threw it all away 

e|-3--------------2----------------------------3----------------------------|
B|-3--------------3----------------------------3----------------------------|
G|-0--------------2----------------------------0----------------------------|
D|-2--------------0----------------------------2----------------------------|
A|-2--------------x----------------------------3----------------------------|
E|-0--------------x----------------------------x----------------------------|
   Prays to God and says shes sorry, take this hurt away

e|-3-----------------2--------------------------3---------------------------|
B|-3-----------------3--------------------------3---------------------------|
G|-0-----------------2--------------------------0---------------------------|
D|-2-----------------0--------------------------2---------------------------|
A|-2-----------------x--------------------------3---------------------------|
E|-0-----------------x--------------------------x---------------------------|
   Scream, scream, its all in silence, broken on her knees

e|-3------------------2--------------------------3--------------------------|
B|-3------------------3--------------------------3--------------------------|
G|-0------------------2--------------------------0--------------------------|
D|-2------------------0--------------------------2--------------------------|
A|-2------------------x--------------------------3--------------------------|
E|-0------------------x--------------------------x--------------------------|
   Sleeps and hopes its all a bad dream, wash it all away

Solo
e|-0------------------0------------------0------------------2---------------|
B|-1------------------1------------------1------------------3---------------|
G|-2------------------0------------------2------------------2---------------|
D|-2------------------2------------------2------------------0---------------|
A|-0------------------3------------------0------------------x---------------|
E|-x------------------x------------------x------------------x---------------|

Chorus  x3

e|---------3------------2------------1--0---1----0----------|-----------3---|
B|---------3------------3------------2--1---2----1----------|-----------3---|
G|---------0------------2------------3--0---3----0----------|-----------0---|
D|---------0------------0------------4--2---4----2----------|-----------0---|
A|---------2------------x------------4--3---4----3----------|-----------2---|
E|---------3------------x------------1--x---1----0----------|-----------3---|
   Just broken, Just broken, Just broken,    yeah yeah  x3    Just broken


************************************
| h   hammer-on
************************************
Tap to rate this tab
# A B C D E F G H I J K L M N O P Q R S T U V W X Y Z