Song name
# A B C D E F G H I J K L M N O P Q R S T U V W X Y Z

Million Dollar Reload - Bullets In The Sky tab

-------------------------------------------------------------------------------
                             Bullets In The Sky Ė Million Dollar Reload
-------------------------------------------------------------------------------
Tuning:EADGe
Intro
e|-3----3----3----3----3----3----3----3----3----3----3----3----3----3----3----3------|
B|-3----3----3----3----3----3----3----3----3----3----3----3----3----3----3----3------|
G|-4----3----4----3----4----3----4----3----4----3----4----3----4----3----4----3------|
D|-5----3----5----3----5----3----5----3----5----3----5----3----5----3----5----3------|
A|-5----3----5----4----5----3----5----3----5----3----5----3----5----3----5----3------|
E|-3----3----3----3----3----3----3----3-----3----3----3----3----3----3----3----3-----|

Vs 1
e|-3------------3-----------3---------------3--------------3--------------|
B|-3------------3-----------3---------------3--------------3--------------|
G|-3------------4-----------3---------------4--------------3--------------|
D|-3------------5-----------3---------------5--------------3--------------|
A|-3------------5-----------3---------------5--------------3--------------|
E|-3------------3-----------3---------------3--------------3--------------|
   Well itís a long way down and thereís no way out

e|-3----------3---------------------3-------------3-----------------3----|
B|-3----------3---------------------3-------------3-----------------3----|
G|-3----------4---------------------3-------------4-----------------3----|
D|-3----------5---------------------3-------------5-----------------3----|
A|-3----------5---------------------3-------------5-----------------3----|
E|-3----------3---------------------3-------------3-----------------3----|
   Got our senses tuned to overload, with no turnoffís on this route

e|-3---------3--------------------3-------------3------------3------|
B|-3---------3--------------------3-------------3------------3------|
G|-3---------4--------------------3-------------4------------3------|
D|-3---------5--------------------3-------------5------------3------|
A|-3---------5--------------------3-------------5------------3------|
E|-3---------3--------------------3-------------3------------3------|
   Got your gun in your right hand and your face in the dirt

e|-3--------3----------------------3---------3--------------3------|
B|-3--------3----------------------3---------3--------------3------|
G|-3--------4----------------------3---------4--------------3------|
D|-3--------5----------------------3---------5--------------3------|
A|-3--------5----------------------3---------5--------------3------|
E|-3--------3----------------------3---------3--------------3------|
   And a target thatís got no name, whoís gonna get it first

e|-3------1--------------------------------------------0------|
B|-3------1--------------------------------------------1------|
G|-3------2--------------------------------------------0------|
D|-3------3--------------------------------------------2------|
A|-3------3--------------------------------------------3------|
E|-3------1--------------------------------------------3------|
     And you know you gotta stay brave, if you wanna get home

Chorus
e|-3--------------2--------------------------0----------------------0----------|
B|-0--------------3--------------------------1----------------------1----------|
G|-0--------------2--------------------------2----------------------0 ---------|
D|-0--------------0--------------------------2----------------------2----------|
A|-2--------------0--------------------------0----------------------3----------|
E|-3--------------X--------------------------X----------------------3----------|
   Iíve seen your blood red wars, I would do anything, I would give anything

e|-3--------------2--------------------------0----------------------0----------|
B|-0--------------3--------------------------1----------------------1----------|
G|-0--------------2--------------------------2----------------------0 ---------|
D|-0--------------0--------------------------2----------------------2----------|
A|-2--------------0--------------------------0----------------------3----------|
E|-3--------------X--------------------------X----------------------3----------|
   Iíve seen your blood red wars, I would do anything, I would give anything

e|---------------3------------------1-------------------0------------------|
B|---------------3------------------1-------------------1------------------|
G|---------------4------------------2-------------------0------------------|
D|---------------5------------------3-------------------2------------------|
A|---------------5------------------3-------------------3------------------|
E|---------------3------------------1-------------------3----------0-1-2-3-|
   To stop those bullets in the sky, bullets in the sky, bullets

e|---------------3------------------1-------------------0------------------|
B|---------------3------------------1-------------------1------------------|
G|---------------4------------------2-------------------0------------------|
D|---------------5------------------3-------------------2------------------|
A|---------------5------------------3-------------------3------------------|
E|---------------3------------------1-------------------3----------0-1-2-3-|
   To stop those bullets in the sky, bullets in the sky, bullets

Vs 2
e|-3-----3-----3----------------3-----------3---------3--|
B|-3-----3-----3----------------3-----------3---------3--|
G|-4-----3-----4----------------3-----------4---------3--|
D|-4-----3-----5----------------3-----------5---------3--|
A|-5-----3-----5----------------3-----------5---------3--|
E|-3-----3-----3----------------3-----------3---------3--|
               Whoís your enemy, is it a dog eat dog

e|-3------------3---------------------3------3----------------------3----|
B|-3------------3---------------------3------3----------------------3----|
G|-3------------4---------------------3------4----------------------3----|
D|-3------------5---------------------3------5----------------------3----|
A|-3------------5---------------------3------5----------------------3----|
E|-3------------3---------------------3------3----------------------3----|
   Pledge allegiance to coloured flags, killing in the name of God

e|-3------------3---------------------------------3---------3--------------------3------|
B|-3------------3---------------------------------3---------3--------------------3------|
G|-3------------4---------------------------------3---------4--------------------3------|
D|-3------------5---------------------------------3---------5--------------------3------|
A|-3------------5---------------------------------3---------5--------------------3------|
E|-3------------3---------------------------------3---------3--------------------3------|
  Would you do it for yourself, carry out commands, as you lay on the front line

e|-3------3---------------------3------3-----------------3------|
B|-3------3---------------------3------3-----------------3------|
G|-3------4---------------------3------4-----------------3------|
D|-3------5---------------------3------5-----------------3------|
A|-3------5---------------------3------5-----------------3------|
E|-3------3---------------------3------3-----------------3------|
         21 guns for your blood, is what you leave behind
e|-3------1------------------------------------0--------------------|
B|-3------1------------------------------------1--------------------|
G|-3------2------------------------------------0--------------------|
D|-3------3------------------------------------2--------------------|
A|-3------3------------------------------------3--------------------|
E|-3------1------------------------------------3--------------------|
     And you know you gotta stay brave, if you wanna get home
Chorus

(Solo)
e|-3-----2-----0-----1-----3-----3-----3-----3-----3-----3-----3-----3-----|
B|-0-----3-----1-----1-----3-----3-----3-----3-----3-----3-----3-----3-----|
G|-0-----2-----2-----2-----4-----3-----4-----3-----4-----3-----4-----3-----|
D|-0-----0-----2-----3-----5-----3-----5-----3-----5-----3-----5-----3-----|
A|-2-----0-----0-----3-----5-----3-----5-----3-----5-----3-----5-----3-----|
E|-3-----X-----X-----1-----3-----3-----3-----3-----3-----3-----3-----3-----|

e|-3---------------------------------------3-------------------|
B|-3---------------------------------------3-------------------|
G|-4---------------------------------------3-------------------|
D|-5---------------------------------------3-------------------|
A|-5---------------------------------------3-------------------|
E|-3---------------------------------------3-------------------|
   Bullets in the sky, bullets in the sky, bullets in the sky

e|-3---------------------------------------3--------------------------|
B|-3---------------------------------------3--------------------------|
G|-4---------------------------------------3--------------------------|
D|-5---------------------------------------3--------------------------|
A|-5---------------------------------------3--------------------------|
E|-3---------------------------------------3--------------------------|
   Bullets in the sky, bullets in the sky, bullets bullets bullets

e|-3--------------2--------------------------0----------------------0----------|
B|-0--------------3--------------------------1----------------------1----------|
G|-0--------------2--------------------------2----------------------0 ---------|
D|-0--------------0--------------------------2----------------------2----------|
A|-2--------------0--------------------------0----------------------3----------|
E|-3--------------X--------------------------X----------------------3----------|
   Iíve seen your blood red wars, I would do anything, I would give anything

e|-3--------------2--------------------------0----------------------0----------|
B|-0--------------3--------------------------1----------------------1----------|
G|-0--------------2--------------------------2----------------------0 ---------|
D|-0--------------0--------------------------2----------------------2----------|
A|-2--------------0--------------------------0----------------------3----------|
E|-3--------------X--------------------------X----------------------3----------|
   Iíve seen your blood red wars, I would do anything, I would give anything

e|---------------3------------------1-------------------0------------------|
B|---------------3------------------1-------------------1------------------|
G|---------------4------------------2-------------------0------------------|
D|---------------5------------------3-------------------2------------------|
A|---------------5------------------3-------------------3------------------|
E|---------------3------------------1-------------------3----------0-1-2-3-|
   To stop those bullets in the sky, bullets in the sky, bullets

e|-3----------------------1-----------------------0----------------------|
B|-3----------------------1-----------------------1----------------------|
G|-4----------------------2-----------------------0----------------------|
D|-5----------------------3-----------------------2----------------------|
A|-5----------------------3-----------------------3----------------------|
E|-3----------------------1-----------------------3--------------0-1-2-3-|
      Bullets in the sky, bullets in the sky, bullets

e|-3----------------------1-----------------------0------------------------|
B|-3----------------------1-----------------------1------------------------|
G|-4----------------------2-----------------------0------------------------|
D|-5----------------------3-----------------------2------------------------|
A|-5----------------------3-----------------------3------------------------|
E|-3----------------------1-----------------------3------------0-1-2-3-----|
      Bullets in the sky, bullets in the sky, bullets

e|-3----------------------1-----------------------0---------|
B|-3----------------------1-----------------------1---------|
G|-4----------------------2-----------------------0---------|
D|-5----------------------3-----------------------2---------|
A|-5----------------------3-----------------------3---------|
E|-3----------------------1-----------------------3---------|
     Bullets in the sky, bullets in the sky, bullets
************************************
Tap to rate this tab
 
# A B C D E F G H I J K L M N O P Q R S T U V W X Y Z