Song name
# A B C D E F G H I J K L M N O P Q R S T U V W X Y Z

Millionaire - Champagne tab

Millionaire - Champagne


Tbbed By Renzy


Bass guitar intro:
----------------------------------------|
----------------------------------------|
-3-5-3--------------3-5-3-6-111111------|
-------555555555555---------------33333-|

Guitar:
**first guitar (main riff)
-------------------------|
-------------------------|
-5-7-5-------------------|
-5-7-5-7-7-7-7-7-7-7-----|
-3-5-3-7-7-7-7-7-7-7-----|
-------5-5-5-5-5-5-5-----|

-------------------------|
-------------------------|
-5-7-5-8-----------------|
-5-7-5-8-88888-55555-----|
-3-5-3-6-88888-55555-----|
---------66666-33333-----|


**second guitar: 0.30m
---------------------------------------------|
-----8-------10-9-8-------9---------10-9-8-9-|
-7h9---9p7-9---------8h10---10p8-10----------|
---------------------------------------------|
---------------------------------------------|
---------------------------------------------|


Chorus

---------------------|
-5b--8b---10b--10b---|
-7b--10b--12b--12b---|   x3then
---------------------|
---------------------|
---------------------|

---------------------|
-11b--4b--3b---------|
-13b--6b--5b---------|
---------------------|   this once
---------------------|
---------------------|

**first guitar does this somewhere in the song:

-------------------------|
-------------------------|
-2-2-2-3-3-3-4-4-4-5-7-5-|   3xthen
-2-2-2-3-3-3-4-4-4-5-7-5-|
-0-0-0-1-1-1-2-2-2-3-5-3-|
-------------------------|

---------|
---------|
-8-8-8-8-|
-8-8-8-8-| this couple of times
-6-6-6-6-|
---------|
Tap to rate this tab
# A B C D E F G H I J K L M N O P Q R S T U V W X Y Z