Guitaretab - guitar tabs
Song name
# A B C D E F G H I J K L M N O P Q R S T U V W X Y Z

Millionaire - Rise And Fall tab

Millionaire
Rise and Fall
Paradisiac

Its important you know this song is bad-ass and should be played right.

This is the main bit, sometimes itís a shuffling kind of variation of this.

E---------------------------------------------------------------------|
B---------------------------------------------------------------------|
G-----1------------3------3-------------------------------------------|
D---------------------------------------------------------------------|
A---------------------------------------------------------------------|
E--1-----1--2--3-----3------------------------------------------------|

The next bit
[ Tab from: http://www.guitaretab.com/m/millionaire/155146.html ]
E-------------------------------------------------------------------|
B--------------22222------------------------------------------------|
G----------------------------33333----------------------------------|
D-------------------------------------------------------------------|
A-------------------------------------------------------------------|
E-----------3-----------3-------------------------------------------|

Other bit

E-------------------------------------------------------------------|
B-------------------------------------------------------------------|
G-------6-----7----3------------------------------------------------|
D-------------------------------------------------------------------|
A-------------------------------------------------------------------|
E---6-----7----3----------------------------------------------------|

The rest I havenít worked out yet. The chorus has the main bit going. The four chord 
before the chorus may be played using notes from ĎOther bití and maybe an F. Any questions 
comments you can email me at fuckyou_idontcare@hotmail.com
Related for Rise And Fall tab