Millionaires - I Like Money tab

The band's website: http://www.myspace.com/millionaires

I love this band and this song, wanted to learn it for the lolz but there were no 
tabs so i worked it out. The guitar plays a minimal part really but it's fun nonetheless. :D 

Intro:
e|---------------------------|
B|---------------------------|
G|---------8---6---6---------|
D|---6-8-9---6---6---9-8-6-9-|
A|-6-------------------------|
E|---------------------------|

Verse (or whatever):
e|---------|
B|---------|
G|---------|
D|---6-8-9-|
A|-6-------|
E|---------| Just repeat this. etc.


Look over heeere. <3
Tap to rate this tab
 
# A B C D E F G H I J K L M N O P Q R S T U V W X Y Z