Song name
# A B C D E F G H I J K L M N O P Q R S T U V W X Y Z

Milo Greene - 1957 tab

Tab by Andrew Marino


This is for the beginning and other parts of the song where this part comes in. It's
probably my favorite part of the song, and makes the song what it is for me. I had to make
an account, just for it because there is no tab for the part. The song is great, and 
very well written. One of my favorites. As far as guitar, I taught myself so I don't know
every type of chord but you can still get it with the tab shown below:

CAPO: 1st fret

I've listened and played with the tab, and it sounds dead on. Here it is:

  Am
e|--------0--------------0--------------3--------------3--------|
b|-----1-----1--------1-----1--------1-----1--------1-----1-----|
g|--2-----------2--2-----------2--0-----------0--0-----------0--|
d|--------------------------------------------------------------|
a|--------------------------------------------------------------|
E|--------------------------------------------------------------|


e|---------3--------------3--------------3--------------0-------|
b|-----1------1--------1-----1--------1-----1--------1-----1----|
g|------------------0-----------0--2-----------2--0-----------0-|
d|--3------------3----------------------------------------------|
a|--------------------------------------------------------------|
E|--------------------------------------------------------------|

And it repeats like that in the certain parts of the song it's played in. That's really
all you need to know to get it.
Tap to rate this tab
# A B C D E F G H I J K L M N O P Q R S T U V W X Y Z