Song name
# A B C D E F G H I J K L M N O P Q R S T U V W X Y Z

Milo Greene - Dont Give Up On Me Acoustic tab

Artist: Milo Greene     
Song: Donít Give Up On Me
Album: Milo Greene
Tuning: Standard

Intro

e |--x----x----x----x-------|
B |--x----x----x----x-------|
G |--7----9----6----9-------|
D |--7----9----6----9-------|
A |--5----7----4----7-------|   
E |--x----x----x----x-------|

Lead Guitar

e |--9--5--7--5---7--5---10---5--|
B |------------------------------|
G |------------------------------|
D |------------------------------|
A |------------------------------|      
E |------------------------------|

Verse 1

e |--x----x----x----x-------|
B |--x----x----x----x-------|
G |--7----9----6----9-------|
D |--7----9----6----9-------|
A |--5----7----4----7-------|   
E |--x----x----x----x-------|

I'll go, I'll go, I'll go wherever you go 
And I will never leave without letting you know 

Chorus

e |--x----x----x----x-------|
B |--x----x----x----x-------|
G |--7----9----6----9-------|
D |--7----9----6----9-------|
A |--5----7----4----7-------|   
E |--x----x----x----x-------|

Lead Guitar

e |--9--5--7--5---7---5--11---5--|
B |------------------------------|
G |------------------------------|
D |------------------------------|
A |------------------------------|      
E |------------------------------|


Don't you give up on me 
Don't you give up on me 

Verse 2

e |--x----x----x----x-------|
B |--x----x----x----x-------|
G |--7----9----6----9-------|
D |--7----9----6----9-------|
A |--5----7----4----7-------|   
E |--x----x----x----x-------|

We're told, we're told, we're told we'll never get old 
So don't you ever show them, show them our bones 
We'll dig, we'll dig, we'll dig our own little hole, 
Then put our walls around it and call it our home 

Chorus

Bridge

e |--x----x----x-----x-------|
B |--x----x----x-----x-------|
G |--7----6----9----13-------|
D |--7----6----9----13-------|
A |--5----4----7----11-------|  
E |--x----x----x----x--------|

Cause you're all I got 
And time won't stop

Chorus
Tap to rate this tab
# A B C D E F G H I J K L M N O P Q R S T U V W X Y Z