Song name
# A B C D E F G H I J K L M N O P Q R S T U V W X Y Z

Milow - You Dont Know tab

Help us improve GuitareTab! Take a short survey!
e-0--0--0--0--0--0--0--0            capo : 4-|
b-1--1--1--1--1--1--1--0---------------------|
g-2--2--0--2--2--0--0--1---------------------|
d-2--3--0--2--3--0--2--2---------------------|
a-0--3--2--0--3--2--3--2---------------------|
E-0--0--3--0--0--3--0--0---------------------|


_____________________________________

INTRO / VERSE

e|-0--0--0--0--|-0--0--0--0--|-0--0--0--0--|-0--0--0--0--|-0--0--0--0--|
B|-1--1--1--1--|-1--1--1--1--|-1--1--1--1--|-1--1--1--1--|-1--1--1--1--|
G|-2--2--2--2--|-2--2--2--2--|-0--0--0--0--|-2--2--2--2--|-2--2--2--2--|
D|-2--2--2--2--|-3--3--3--3--|-0--0--0--0--|-2--2--2--2--|-3--3--3--3--|
A|-0--0--0--0--|-3--3--3--3--|-2--2--2--2--|-0--0--0--0--|-3--3--3--3--|
E|-0--0--0--0--|-0--0--0--0--|-3--3--3--3--|-0--0--0--0--|-0--0--0--0--|

e|-0--0--0--0--|-0--0--0--0--|-0--0--0--0--|-0--0--0--0--|
B|-1--1--1--1--|-1--1--1--1--|-0--0--0--0--|-1--1--1--1--|
G|-0--0--0--0--|-0--0--0--0--|-1--1--1--1--|-2--2--2--2--|  REPEAT ALL *
D|-0--0--0--0--|-2--2--2--2--|-2--2--2--2--|-2--2--2--2--|
A|-2--2--2--2--|-3--3--3--3--|-2--2--2--2--|-0--0--0--0--|
E|-3--3--3--3--|-0--0--0--0--|-0--0--0--0--|-0--0--0--0--|


sometimes everything seems awkward and large
imagine a Wednesday evening in march
future and past at the same time
I make use of the night and start drinking a lot
although not ideal for now it's all that I've got
it's nice to know your name

an ocean a lake I need a place to drown
let's freeze the moment because we're going down
tomorrow you'll be gone
you're laughing too hard this all seems surreal
I feel peculiar now what do you feel
do you think there's a chance that we can fall

you don't know you don't know
you don't know anything about me
what do I know I know your name
you don't know you don't know you don't know anything about me anymore

I gave up dreaming for a while
I gave up dreaming for a while

I've noticed these are mysterious days
I look at it like a jigsaw puzzle and gaze
with wide open mouth and burning eyes
if only I could start to care
my dreams and my Wednesdays ain't going nowhere
baby baby baby you don't know
Related for You Dont Know tab