Guitaretab - guitar tabs
Song name
# A B C D E F G H I J K L M N O P Q R S T U V W X Y Z

Milow - Building Bridges tab

MILOW  Building Bridges From the album North And South by Milow.

(This Is My First Tab xD)

Intro:
e|------------------------------------------||
B|---3-------------3---------3----3---2-----||
G|------2--------0---------0--------0---0---||
D|-0-----0------0---0-----2---0-------------||
A|-----------2---------0----------0---------||
E|------------------------------------------||

e|--------------------------------0---------||
B|---3-------------3---------3--------2-----||
G|------2--------0---------0--------0---0---||
D|-0-----0------0---0-----2---0-------------||
A|-----------2---------0----------0---------||
E|------------------------------------------||
Verse:
e|------------------------------------------||
B|---3-------------3---------3----3---2-----||
G|------2--------0---------0--------0---0---||
D|-0-----0------0---0-----2---0-------------||
A|-----------2---------0----------0---------||
E|------------------------------------------||
[ Tab from: http://www.guitaretab.com/m/milow/279926.html ]
e|--------------------------------0---------||
B|---3-------------3---------3--------2-----||
G|------2--------0---------0--------0---0---||
D|-0-----0------0---0-----2---0-------------||
A|-----------2---------0----------0---------||
E|------------------------------------------||

e|--------------------------------0---||
B|---3-------------3---------3--------||
G|------2--------0---------0----------||
D|-0-----0------0---0-----2---0-------||
A|-----------2---------0----------0---||
E|------------------------------------||
Refrain:
e|---------------------------------------||
B|------3--------2-------3----------3----||
G|----4--------2-----------2------0------||
D|---4---4----2---2---0-----0----0---0---||
A|-2--------0----------------------------||
E|-----------------------------3---------||

e|---------------------------------------||
B|------3--------2-------3----------3----||
G|----4--------2-----------2------0------||
D|---4---4----2---2---0-----0----0---0---||
A|-2--------0----------------------------||
E|-----------------------------3---------||

e|-----------0-----|| e|--------------------------------0---------||
B|------3----2-----|| B|---3-------------3---------3--------2-----||
G|----4------2-----|| G|------2--------0---------0--------0---0---||
D|---4---4---------|| D|-0-----0------0---0-----2---0-------------||
A|-2---------0-----|| A|-----------2---------0----------0---------||
E|-----------------|| E|------------------------------------------||

Good Luck !!
Related for Building Bridges tab