Song name
# A B C D E F G H I J K L M N O P Q R S T U V W X Y Z

Milow - Out Of My Hands tab

-------------------------------------------------------------------------------
		    OUT OF MY HANDS (intro)- Milow
-------------------------------------------------------------------------------
Tabbed by:occ0
Email:smileok@windowslive.com




e|-0--------1--0-----1--0----0-1-3--------------------------------------------|
B|----3--5--------3--------1--------3-----------------------------------------|
G|----------------------------------0-----------------------------------------|
D|----------------------------------------------------------------------------|
A|-3--------------------3-----------------------------------------------------|
E|----------------------------------------------------------------------------|
Tap to rate this tab
 
# A B C D E F G H I J K L M N O P Q R S T U V W X Y Z