Song name
# A B C D E F G H I J K L M N O P Q R S T U V W X Y Z

Mimicking Birds - The Loop tab

Help us improve GuitareTab! Take a short survey!
-------------------------------------------------------------------------------
			     The Loop - Mimicking Birds
-------------------------------------------------------------------------------
Tabbed by: Mike G.
Email:

Tuning: F#ADGBe (standard w/ low E tuned up to F#)


http://www.myspace.com/natelacy

This is a song by a new band called Mimicking Birds who are signed to Glacier Pace 
which is Isaac Brock's (modest mouse) record label.  They recently completed a tour with 
Mouse and plan on releasing their debut CD in June.

e|---------------------------------------------------------------------------|
B|---------------------------------------------------------------------------|
G|----------4-3-------------6s1----------------------------------------------|
D|------1s4-----4-1---4---4--------------------------------------------------|
A|----4-------------4---4----------------------------------------------------|
F#|-0------------------------------------------------------------------------|
Related for The Loop tab