Song name
# A B C D E F G H I J K L M N O P Q R S T U V W X Y Z

Mimicking Birds - Burning Stars tab

----------------------------------------------------------------------------
			     Burning Stars - Mimicking Birds
----------------------------------------------------------------------------
Tabbed by: Mike Giordano
Email:

Tuning: Standard (EADGBe)

http://www.myspace.com/natelacy

This is a song by a new band called Mimicking Birds who are signed to Glacier Pace which 
Isaac Brock's (Modest Mouse) record label.  They recently completed a tour with Modest 
and plan on releasing their debut CD in June.

Intro x4
e|-------------------------------------------------------------------------|
B|-5-----------3-2p0-------------------------------------------------------|
G|--6--6--7--4-------4-2-----2-----0---------------------------------------|
D|-0----------------------4----4s5-----------------------------------------|
A|-------------------------------------------------------------------------|
E|-------------------------------------------------------------------------|


chords for the rest of the song

figuring out the changes and strumming pattern should be very easy

e|-x--x------x--x--x-------------------------------------------------------|
B|-7--x------3--x--x-------------------------------------------------------|
G|-x--7------x--6--4-------------------------------------------------------|
D|-7--5------4--x--x-------------------------------------------------------|
A|-5--5------2--7--5-------------------------------------------------------|
E|-x--x------x--5--3-------------------------------------------------------|

This was a hard song to figure out by ear and I think there might be one or two minor 
so bear with me and comment if you find a mistake.
Thanks.
Tap to rate this tab
# A B C D E F G H I J K L M N O P Q R S T U V W X Y Z