Mimicking Birds - Burning Stars tab

Great song and pretty easy to play. I apologize that the solo is not perfect but you can 
sorta get a feel from what I have. Enjoy.


Intro Acoustic

--0--------------------------------------------------------------|
----2---2---3---0---3-2-0----------------------------------------|
----------------------------2-----------0------------------------|
---------------------------------4---4-----0---------------------|
-----------------------------------------------------------------|
--3---3---3---3---3-------3---3----3----------3------------------|


Intro Background Guitar

-----------2--5--7--10--7--5--2--------------2--5--2--------------|
--3--3--5------------------------5--3--3--5-----------5--3--5/7/5-|
------------------------------------------------------------------|
------------------------------------------------------------------|
------------------------------------------------------------------|
------------------------------------------------------------------|


[D   ][G   ][D   ][G   ]
[Bm  ][A   ][G   ]

D			G
So I see it seems we've settled down
D				    G
Quite a bit from the energy we once had
D		     G
Oh, believe me we've settled down
    Bm	      A		G
Way down, way down, way down.


Bm		  A
And all we are is burning stars
G
Shining brightly making sure you dont float too far
Bm			   A
I'll keep an eye on you if you keep one on me
G
And then what happens we'll see

And then what happens we'll see

[D   ][G   ][D   ][G   ]
[Bm  ][A   ][G   ]



----2----2----5---5---------2---2-----5---5-----2----2-----5----5----|
-3----3----/7---7---7----3----3----/7---7----3----3-----/7---7-----7-|
---------------------------------------------------------------------|
---------------------------------------------------------------------|
---------------------------------------------------------------------|
---------------------------------------------------------------------|



---5h7-7-7--5--2--5--2---------------------------7h10-10-7-7-5-5--7-10-12-14-|
---7---7-7--5--3--5--3--2-2-2h3-3-3-3/5-5/7-7/10-7h10-10-7-7-5-5--7-10-12-15-|
------------------------2-2-2h4-4-4-4/6-6/7-7/11-----------------------------|
-----------------------------------------------------------------------------|
-----------------------------------------------------------------------------|
-----------------------------------------------------------------------------|




-7h10-10-7-7-5-5--7-10-12-14----|
-7h10-10-7-7-5-5--7-10-12-15----|
--------------------------------|
--------------------------------|
--------------------------------|
--------------------------------|


D				     G
And all the time it takes til you've had enough
D					 G
Has shortened even in the last couple of years
D			  G
But so too have the years themselves
Bm	    A		G
Themselves, themselves, the years themselves


And all the years fly by as well the clock still tickin' a few more of us missin'


Bm		  A
And all we are is burning stars
G
Shining brightly making sure you dont float too far
Bm			   A
I'll keep an eye on you if you keep one on me
G
And then what happens we'll see

And then what happens we'll see


Bm		  A
And all we are is burning stars
G
Shining brightly making sure you dont float too far
Bm			   A
I'll keep an eye on you if you keep one on me
G
And then what happens we'll see

And then what happens we'll see

And then what happens we'll see

And then what happens we'll see
Tap to rate this tab
 
# A B C D E F G H I J K L M N O P Q R S T U V W X Y Z