Song name
# A B C D E F G H I J K L M N O P Q R S T U V W X Y Z

Mimicking Birds - Home And Somewhere Else tab

Mimicking Birds - Home and Somewhere Else

Tuning: C Bb D G B E

Beautiful song, and pretty simply once I figured out a tuning that worked well. Enjoy!


---------------------------|
-----6p5----5h6----5-----5-|
----5------5------5-----5--|
---7------7------7-----7---|  x4 (or 2)
--7------7------7-----7----|
-5------5------5-----5-----|


----------------------|
-----1----1----1----0-|
----0----0----0----0--|
---2----2----2----2---|
--2----2----2----2----|
-0----0----0----0-----|


Send me some feedback
Tap to rate this tab
# A B C D E F G H I J K L M N O P Q R S T U V W X Y Z