Song name
# A B C D E F G H I J K L M N O P Q R S T U V W X Y Z

Mimicking Birds - On The Warm Side tab

-------------------------------------------------------------------------------
                          ON THE WARM SIDE - Mimicking Birds
-------------------------------------------------------------------------------
Tabbed by: iluvvsmp2
E-mail: bregan1992@gmail.com


Tuning: Drop D - DADGBe

So a lot of this song is just really simple chords - I will tab them in their 
appropriate spot in the song, but I'll leave it up to you to figure out what 
notes are played where at in the strumming pattern (typically the higher notes 
are played on the upstrokes - he plays without a pick). 

 
e|-----------------------------------|
B|-----------------------------------|
G|-----------------------------------| x1
D|--12-------------------------------|
A|---9-----7---------2-----0---------|
E|---9-----7---------2-----0---------|

e|-----------------------------------|
B|-----------------------------------|
G|-----------------------------------| x3
D|-----------------------------------|
A|---9-----7---------2-----0---------|
E|---9-----7---------2-----0---------|

e|-----------------------------------|
B|-----------------------------------|
G|-----------------------------------| x1
D|---------9---------7-----5---------|
A|---5-----5---------3-----1---------|
E|---5-----5---------3-----1---------|

e|-----------------------------------|
B|-----------------------------------|
G|-----------------------------------| x3
D|-----------------------------------|
A|---9-----7---------2-----0---------|
E|---9-----7---------2-----0---------|

e|---------------------------------------------------|
B|---------------------------------------------------|
G|---------------------------------------------------|
D|---------9---------7--------------12-----------14--|
A|---5-----5---------3---------------8-----------10--|
E|---5-----5---------3---------------8-----------10--|

Note: to avoid confusion, any notes placed between {brackets} are played rather 
quickly (sixteenth notes), unlike any other notes tabbed here.

e|---------------------------------------------------------------|
B|---------------------------------------------------------------|
G|---------------------------------------------------------------|
D|----------4/7------7--{7h9p7}-7-----7--{7p4h0}-0----{0h2p0}-0--|
A|---0-----------------------------------------------------------|
E|---0-------------0---0------------0---0-----0----0-0-----------|

e|-----------------------------------|
B|---8-------------------------------|
G|---x-------------------------------|
D|--10-------------------------------|
A|---7-------------------------------|
E|---7-------------------------------|

e|---------------------------------------------------------------|
B|---------------------------------------------------------------|
G|---------------------------------------------------------------|
D|----------4/7------7--{7h9p7}-7-----7--{7p4h0}-0----{0h2p0}-0--|
A|---0-----------------------------------------------------------|
E|---0-------------0---0------------0---0-----0----0-0-----------|

e|-----------------------------------|
B|---8-------------------------------|
G|---x-------------------------------|
D|--10-------------------------------|
A|---7-------------------------------|
E|---7-------------------------------|

e|-------------------------------------------------------------|
B|-------------------------------------------------------------|
G|-------------------------------------9----9h11---------------|
D|----------4/7------7--{7h9p7}-7h9/12---12--------------------|
A|---0---------------------------------------------------------|
E|---0-------------0---0--------------------------------0---0--|

e|-----------------------------------|
B|---8-------------------------------|
G|---x-------------------------------|
D|--10-------------------------------|
A|---7-------------------------------|
E|---7-------------------------------|

e|---------------------------------------------------------------|
B|---------------------------------------------------------------|
G|---------------------------------------------------------------|
D|----------4/7------7--{7h9p7}-7-----7--{7p4h0}-0----{0h2p0}-0--|
A|---0-----------------------------------------------------------|
E|---0-------------0---0------------0---0-----0----0-0-----------|

e|-----------------------------------|
B|---8-------------------------------|
G|---x-------------------------------|
D|--10-------------------------------|
A|---7-------------------------------|
E|---7-------------------------------|

e|--------------------------------------------------------|
B|--------------------------------------------------------|
G|-----------------------9\\\6----------------------------|
D|----------4/7------7----------7\\\4--------{0h2p0}-/4p0-|
A|---0---------------------------------0h2h4--------------|
E|---0-------------0---0----------------------------------|

e|---------------5----------------------------------------------| |
B|------------------6p5---6p5-----------------------------------| |
G|--------7---------------------------------------5-------5-----| |
D|------8----8----------8-----8\5------5------5/7-----7-------6-| |
A|-----------------------------------3----3---------------------| |
E|---5---------5------------------3---------3-------3---3---3---| |
                                                                  | x3
e|---------------3----------------------------------------------| |
B|------------------4p3---4p3-----------------------------------| |
G|--------5---------------------------------------3-------3-----| |
D|------6----6----------6----6\3-------3------3/5-----5---------| |
A|-----------------------------------1----1---------------------| |
E|---3---------3------------------1---------1-------1---1---1/--| |

e|---------------5----------------------------------------------|
B|------------------6p5---6p5-----------------------------------|
G|--------7---------------------------------------5-------5-----|
D|------8----8----------8-----8\5------5------5/7-----7-------6-|
A|-----------------------------------3----3---------------------|
E|---5---------5------------------3---------3-------3---3---3---|

e|---------------3----------------------------------------------|
B|------------------4p3---4p3-----------------------------------|
G|--------5---------------------------------------3-------3-----|
D|------6----6----------6----6\3-------3------3/5-----5-------0-|
A|-----------------------------------1----1---------------------|
E|---3---------3------------------1---------1-------1---1---0---|

e|--------------(0)----------------|
B|---------------5-----------------|
G|--------2/4--------4h6-----6-----| x1
D|------0-----0----------0h7-----0-|
A|-----------------------------0---|
E|---0-----------------------------|

e|--------------(0)----------------|
B|---------------5-----------------|
G|---2----2/4--------4h6-----6-----| x2
D|------0-----0----------0h7-----0-|
A|-----------------------------0---|
E|---0-----------------------------|

e|--------------(0)----------------|
B|---------------5-----------------|
G|---2----2/4--------4h6-----6-----| x1
D|------0-----0----------0h7-------|
A|-----------------------------0---|
E|---0-----------------------------|

e|-----------------------------------|
B|-----------------------------------|
G|-----------------------------------| x3
D|-(12)--(11)-------(5)---(4)--------|
A|---9-----7---------2-----0---------|
E|---9-----7---------2-----0---------|

e|--------------(0)----------------|
B|---------------5-----------------|
G|--------2/4--------4h6-----6-----| x1
D|------0-----0----------0h7-----0-|
A|-----------------------------0---|
E|---0-----------------------------|

e|--------------(0)----------------|
B|---------------5-----------------|
G|---2----2/4--------4h6-----6-----| repeat...
D|------0-----0----------0h7-----0-|
A|-----------------------------0---|
E|---0-----------------------------|



************************************

| /   slide up
| \   slide down
| h   hammer-on
| p   pull-off
| ~   vibrato
| +   harmonic
| x   Mute note
| b   Bend
| pb  Pre-bend
| br  Bend release
| pbr Pre-bend release
| brb Bend release bend

************************************
Tap to rate this tab
# A B C D E F G H I J K L M N O P Q R S T U V W X Y Z