Song name
# A B C D E F G H I J K L M N O P Q R S T U V W X Y Z

Mimicking Birds - Burning Stars tab

Open D Tuning
(Dadf#ad)

Chords Used:
D |--x-------x-----x-----x------|
A |--x-------x-----x-----x------|
F#|--12------5-----8-----7------|
D |--0-------0-----0-----0------|
A |--x-------x-----x-----x------|
D |--12------5-----9-----7------|

Intro is the same as the verse

Verse 1
D |---x-------x------x-------x------x-------x------x-------x--------x--------|
A |---x-------x------x-------x------x-------x------x-------x--------x--------|
F#|---12------5------12------5------12------5------8-------7--------5--------|
D |---0-------0------0-------0------0-------0------0-------0--------0--------|
A |---x-------x------x-------x------x-------x------x-------x--------x--------|
D |---12------5------12------5------12------5------9-------7--------5--------|


Chorus 1
D |---x---x---x---x---x---x---|
A |---x---x---x---x---x---x---|
F#|---8---7---5---8---7---5---|
D |---0---0---0---0---0---0---|
A |---x---x---x---x---x---x---|
D |---9---7---5---9---7---5---|

This is where the solo goes. Just play these chords during this part. They're the same 
as the verse and intro but instead of finishing on the 5th finish fret go straight to the 
12th fret after after the 7th fret

D |---x-------x------x-------x------x-------x------x-------x--------|
A |---x-------x------x-------x------x-------x------x-------x--------|
F#|---12------5------12------5------12------5------8-------7--------|
D |---0-------0------0-------0------0-------0------0-------0--------|
A |---x-------x------x-------x------x-------x------x-------x--------|
D |---12------5------12------5------12------5------9-------7--------|




Verse 2
D |---x-------x------x-------x------x-------x------x-------x--------x--------|
A |---x-------x------x-------x------x-------x------x-------x--------x--------|
F#|---12------5------12------5------12------5------8-------7--------5--------|
D |---0-------0------0-------0------0-------0------0-------0--------0--------|
A |---x-------x------x-------x------x-------x------x-------x--------x--------|
D |---12------5------12------5------12------5------9-------7--------5--------|



Chorus 2
D |---x---x---x---x---x---x---|
A |---x---x---x---x---x---x---|
F#|---8---7---5---8---7---5---|
D |---0---0---0---0---0---0---|
A |---x---x---x---x---x---x---|
D |---9---7---5---9---7---5---|

Play this twice through then end
Tap to rate this tab
 
# A B C D E F G H I J K L M N O P Q R S T U V W X Y Z