Song name
# A B C D E F G H I J K L M N O P Q R S T U V W X Y Z

Mims - Chasing Sunshine tab

F# g# A E
Song: Chasing Sunshine
Artist: mims
Tuning: Standard

INTRO
e----------------------------------------|
B----------------------------------------|
G--------------------9-------------------|
D-----------7------------7--------7------|
A--9---11-------11-----------11-------11-|
E----------------------------------------|

e----------------------------------------|
B----------------------------------------|
G-----------------------------9----------|
D-----------7----------------------------|
A--9---11-------11---9---11------11------|
E----------------------------------------|
The intro runs through whole of the song.

Chorus
     F#          A                E
i got sunshine on my face but i'm not happy
     F#          A                E
i got my eyes so closed so i can see you
     F#          A              Em
i got nothing if i dont have you
Tap to rate this tab
 
# A B C D E F G H I J K L M N O P Q R S T U V W X Y Z